Oops, an error
Loading. Please wait.

Rock N Roll Bass Tab

497 views 3 this week
no commentswrite comment
1 2 3 4 5
please rate
add to favorites
launch autoscroll
font size
0
reset
guitar tuner
Autoscroll
slow
fast
+/-
esc
set tempo
stop
Help us to improve Ultimate-Guitar.com Take our survey!
×
Author
  INTRO

G|----------------------------------|
D|----------------------------------|
A|-5--------------------------------| x2
E|---------5-------3----------------|
B|----------------------------------|

G|----------------------------------|
D|----------------------------------|
A|-5-555555-------------------------| x2
E|---------5-5555553-33333333333333-|
B|----------------------------------|


  VERSE (In the 3rd verse, play this 3 times instead of 2)
G|----------------------------------|----------------------------------|
D|----------------------------------|----------------------------------|
A|-5-555555-------------------------|-5-555555-------------------------| x2
E|---------5-5555553-33333333333333-|---------5-5555557-77777777777777-|
B|----------------------------------|----------------------------------|


  PRE CHORUS
G|------------------|------------------|
D|------------------|------------------|
A|------------------|------------------|
E|-3---3---3--------|-5---5---5--------|
B|------------------|------------------|


  CHORUS
G|----------|    |----------|
D|----------|    |----------|
A|-7-555555-| x7 |-7-5------|
E|----------|    |----------|
B|----------|    |----------|

G|----------------------------------|
D|----------------------------------|
A|-5-555555-------------------------| x4
E|---------5-5555553-33333333333333-|
B|----------------------------------|


  SOLO
G|----------------------------------|----------------------------------|
D|----------------------------------|----------------------------------|
A|-5-555555-------------------------|-5-555555-------------------------|
E|---------5-5555553-33333333333333-|---------5-5555557-77777777777777-|
B|----------------------------------|----------------------------------|

G|----------------------------------|----------------------------------|
D|----------------------------------|----------------------------------|
A|-5-555555-------------------------|-5-555555-------------------------|
E|---------5-5555553--2--0----------|---------5-5555557-77777777777777-|
B|-------------------------3-333333-|----------------------------------|
                           ^^^^^^^^
If you don't have a 5 stringed just play the 3's on the B string on the 5 fret on the A string.


  OUTRO
G|----------------------------------|
D|----------------------------------|
A|-5--------------------------------|
E|---------5-------7-------3/15-----|
B|-------------------------§-§------|
                           ^^^
Just tremolo play these notes, first the 3rd fret and then slide up to the 15th fret
Suggest correction
Give kudos to tab author, rate the tab!
1 2 3 4 5
comments
print report bad tab
guest
You may want to rate the tab now too:
select rating
Please do not post tabs as comments. Select "correction" instead!