Oops, an error
Loading. Please wait.

Scary Song Tab

version 2
version 2

Whole song

Interactive

635 views 1 this week
no commentswrite comment
1 2 3 4 5
worth learning
x 1
add to favorites
launch autoscroll
font size
0
reset
how to read this tab
guitar tuner
Tab Pro tools
  • play this tab
  • loop segment
  • change instrument
  • show fretboard
  • metronome
Autoscroll
slow
fast
+/-
esc
set tempo
stop
Contributor
Tabbed by: Ding
Email: devilishdude22@hotmail.com

Tuning: tandard

Ive see a tab of this on here which is almost correct. But id thought id sort it out. 
for those in a band ive added 2 guitar parts for those who want to play scary song as a cover.

Intro for guitar 1 and 2

e|------------------------| (play 4 times) Listen to cd for timing.
B|------------------------|
G|------------------------|
D|------------------------|
A|--2-2-2-2--5-5-4-5-4-2--|
E|--0-0-0-0--3-3-2-3-2-0--|

verse guitar 1 (and 2 if ya want)

e|----------------------------------------|
B|----------------------------------------|
G|----------------------------------------|
D|----------------------------------------|
A|---2-2-2-2--3-3-3-3--4-4-4-4--5-5-5-5---|
E|---0-0-0-0--1-1-1-1--2-2-2-2--3-3-3-3---|

pre-chourus guitar 1 ( wednesday 13 screams )
e|-------------------|
B|-------------------|
G|-------------------|
D|-------------------|
A|--22-xxxx-22-------|
E|--00-xxxx-00-------|

pre-chourus guitar 2

e|----------------------| Here you can do mini pick scrapes down the string
B|----------------------| on the e and the a, where as guitar 1 does
G|--99------99----------| scratches. Youll get what i mean : )
D|--xx------xx----------|
A|--77-<<<<-77----------|
E|-----<<<<-------------|

chourus guitar 1

e|------------------------| (play 4 times) Listen to cd for timing.
B|------------------------|
G|------------------------|
D|------------------------|
A|--2-2-2-2--5-5-4-5-4-2--|
E|--0-0-0-0--3-3-2-3-2-0--|

chourus guitar 2

e|-------------------------------------|
B|-------------------------------------|
G|--9-9-9-9--12-12-11--12-11-9---------|
D|--x-x-x-x--xx-xx-xx--xx-xx-x---------|
A|--7-7-7-7--10-10--9--10--9-7---------|
E|-------------------------------------|

Unsure about solo so both guitars just play verse. And i believe dats about it for this 
cheers any comments to devilishdude22@hotmail.com
comments
We did not receive enough feedback on this tab! Please rate:
print report bad tab
1 2 3 4 5
I want to post or [tab]
guest
You may want to rate the tab now too:
select rating
Please do not post tabs as comments. Select "correction" instead!