Oops, an error
Loading. Please wait.

The Devil Made Me Do It Tab

version 2
version 2

Whole song

Interactive

254 views 1 this week
1 commentread comment
1 2 3 4 5
accurate
x 3
add to favorites
launch autoscroll
font size
0
reset
how to read this tab
guitar tuner
Autoscroll
slow
fast
+/-
esc
set tempo
stop
Help us to improve Ultimate-Guitar.com Take our survey!
×
Frankenstein Drag Queens From The Planet 13
The Devil Made Me Do It

~ = Let Ring
^ = Bend
PM = Palm Mute

He believed the more viscious his attacks were, the more pleased satan would
be, he believed the more bold he was, the more pleased satan would be.

Intro:
E|---------------------|---------------------|
B|---------------------|---------------------|
G|-----------5^5-3-5-3-|-----------2^2-0-2-0-|
D|-5-5-5-7-5-----------|-2-2-2-4-2-----------|
A|-5-5-5-7-5-----------|-2-2-2-4-2-----------|
E|-3-3-3-5-3-----------|-0-0-0-2-0-----------|Repeat this

Verse 1:
            mum and dad im sorry          for putting bullets in your body
E|------------------------------------------------------------------------|
B|------------------------------------------------------------------------|
G|------------------------------------------------------------------------|
D|-5-5-5-7-5---------------------2-2-2-4-2--------------------------------|
A|-5-5-5-7-5---------------------2-2-2-4-2--------------------------------|
E|-3-3-3-5-3---------------------0-0-0-2-0--------------------------------|
PM----------]                   PM--------]

Verse 1 Con't:
                                                      that i did it for
            one day i hope you'll understand          the man yeah
E|----------------------------------------------------------------------|
B|----------------------------------------------------------------------|
G|----------------------------------------------------------------------|
D|-5-5-5-7-5---------------------------------2-2-2-4-2------------------|
A|-5-5-5-7-5---------------------------------2-2-2-4-2------------------|
E|-3-3-3-5-3---------------------------------0-0-0-2-0------------------|
PM----------]                               PM--------]

Pre-chorus 1:
            well he gave me a command         he said kill your mum and dad
E|-------------------------------------------------------------------------|
B|-------------------------------------------------------------------------|
G|-------------------------------------------------------------------------|
D|-5-5-5-7-5~------------------------2-2-2-4-2~----------------------------|
A|-5-5-5-7-5~------------------------2-2-2-4-2~----------------------------|
E|-3-3-3-5-3~------------------------0-0-0-2-0~----------------------------|

Pre-Chorus 1 Con't:
            he said it's time to be a man         and fill'em full of lead
E|-------------------------------------------------------------------------|
B|-------------------------------------------------------------------------|
G|-------------------------------------------------------------------------|
D|-5-5-5-7-5~----------------------------2-2-2-4-2~------------------------|
A|-5-5-5-7-5~----------------------------2-2-2-4-2~------------------------|
E|-3-3-3-5-3~----------------------------0-0-0-2-0~------------------------|

Chorus:
  the devil made me do it and i'll do it again
E|---------------------------------------------|
B|---------------------------------------------|
G|---------------------------------------------|
D|----2----------------------------------------|
A|----2----------------------------------------|
E|----0----------------------------------------|x4

E|---------------------|---------------------|
B|---------------------|---------------------|
G|-----------5^5-3-5-3-|-----------2^2-0-2-0-|
D|-5-5-5-7-5-----------|-2-2-2-4-2-----------|
A|-5-5-5-7-5-----------|-2-2-2-4-2-----------|
E|-3-3-3-5-3-----------|-0-0-0-2-0-----------|Repeat this

Verse 2:
                                                  with bulletholes in
            mum and dad you're beautiful          your skull
E|-------------------------------------------------------------------|
B|-------------------------------------------------------------------|
G|-------------------------------------------------------------------|
D|-5-5-5-7-5-----------------------------2-2-2-4-2-------------------|
A|-5-5-5-7-5-----------------------------2-2-2-4-2-------------------|
E|-3-3-3-5-3-----------------------------0-0-0-2-0-------------------|
PM----------]                           PM--------]

Verse 2 Con't:
                                                   goodbuy,
                                                   good ridence,
            and red looks good on you too          i hate you          
E|--------------------------------------------------------------|
B|--------------------------------------------------------------|
G|--------------------------------------------------------------|
D|-5-5-5-7-5------------------------------2-2-2-4-2-------------|
A|-5-5-5-7-5------------------------------2-2-2-4-2-------------|
E|-3-3-3-5-3------------------------------0-0-0-2-0-------------|
PM----------]                            PM--------]

Pre-Chorus 2:
            it was a really simple plan          go in and kill mum & dad
E|-----------------------------------------------------------------------|
B|-----------------------------------------------------------------------|
G|-----------------------------------------------------------------------|
D|-5-5-5-7-5~---------------------------2-2-2-4-2~-----------------------|
A|-5-5-5-7-3~---------------------------2-2-2-4-2~-----------------------|
E|-3-3-3-5-3~---------------------------0-0-0-2-0~-----------------------|

Pre-Chorus 2 Con't:
                                                           you fuck with me
                                                           you'll sleep
            there's just one lesson to be learned          with worms
E|-------------------------------------------------------------------------|
B|-------------------------------------------------------------------------|
G|-------------------------------------------------------------------------|
D|-5-5-5-7-5~-------------------------------------2-2-2-4-2~---------------|
A|-5-5-5-7-5~-------------------------------------2-2-2-4-2~---------------|
E|-3-3-3-5-3~-------------------------------------0-0-0-2-0~---------------|

Chorus:
  the devil made me do it and i'll do it again
E|---------------------------------------------|
B|---------------------------------------------|
G|---------------------------------------------|
D|----2----------------------------------------|
A|----2----------------------------------------|
E|----0----------------------------------------|x4

I don't know the solo.

Verse 3:
            mum & dad im sorry          for dismembering your body
E|----------------------------------------------------------------|
B|----------------------------------------------------------------|
G|----------------------------------------------------------------|
D|-5-5-5-7-5-------------------2-2-2-4-2--------------------------|
A|-5-5-5-7-5-------------------2-2-2-4-2--------------------------|
E|-3-3-3-5-3-------------------0-0-0-2-0--------------------------|
PM----------]                 PM--------]

Verse 3 Con't:
                                                     to have the honour
            infact it was a dream come true          to kill you
E|---------------------------------------------------------------------|
B|---------------------------------------------------------------------|
G|---------------------------------------------------------------------|
D|-5-5-5-7-5--------------------------------2-2-2-4-2------------------|
A|-5-5-5-7-5--------------------------------2-2-2-4-2------------------|
E|-3-3-3-5-3--------------------------------0-0-0-2-0------------------|
PM----------]                              PM--------]

Pre-Chorus 3:
                                                   with your god up in the
            i hope you're both doing fine          sky
E|------------------------------------------------------------------------|
B|------------------------------------------------------------------------|
G|------------------------------------------------------------------------|
D|-5-5-5-7-5~-----------------------------2-2-2-4-2~----------------------|
A|-5-5-5-7-5~-----------------------------2-2-2-4-2~----------------------|
E|-3-3-3-5-3~-----------------------------0-0-0-2-0~----------------------|

Pre-Chorus 3 Con't:
            well me im doing well          in the luxuries of hell
E|----------------------------------------------------------------|
B|----------------------------------------------------------------|
G|----------------------------------------------------------------|
D|-5-5-5-7-5~---------------------2-2-2-4-2~----------------------|
A|-5-5-5-7-5~---------------------2-2-2-4-2~----------------------|
E|-3-3-3-5-3~---------------------0-0-0-2-0~----------------------|

Chorus:
  the devil made me do it and i'll do it again
E|--------------------------------------------|
B|--------------------------------------------|
G|--------------------------------------------|
D|----2----------------------------2(only on)-|
A|----2----------------------------2(fourth )-|
E|----0----------------------------0( time  )-|

That's it. rate it please. cheers.
comments
We did not receive enough feedback on this tab! Please rate:
print report bad tab
1 2 3 4 5
1 comment total.
+1 reply
vinnie hall 75 wrote on September 6 2006, 01:10 am

not a real bad tab but if you had the solo it would be good
you can steal the solo from my murderdolls tab because that is correct

I want to post or [tab]
guest
You may want to rate the tab now too:
select rating
Please do not post tabs as comments. Select "correction" instead!