Oops, an error
Loading. Please wait.

The Witch Is Dead Tab

version 2
version 2

Whole song

125 views 1 this week
no commentswrite comment
1 2 3 4 5
please rate
add to favorites
launch autoscroll
font size
0
reset
how to read this tab
guitar tuner
Autoscroll
slow
fast
+/-
esc
set tempo
stop
Help us to improve Ultimate-Guitar.com Take our survey!
×
Author
The Witch is Dead

Frankstenstein Drag Queens from Planet 13

Drop D tuning [DADGBE] (wednesday pretty much always uses this)

Intro:

rhythm;
e --------------------------|
b --------------------------|
g --------------------------|
d --5-5-5-2-----5-5-5-2-----|
a --5-5-5-2-----5-5-5-2-----|
d --5-5-5-2-----5-5-5-2-----| etc...

lead;
e ------------------------------|
b ------------------------------|
g ------------------------------|
d -2h3h2h3h2h3h2h3h3------------|
a ------------------------------|
d ------------------------------|

e ------------------------------|
b ------------------------------|
g -7h8h7h8h7h8h7h8h7------------|
d ------------------------------|
a ------------------------------|
d ------------------------------| x2

e ------------------------------|
b -12h13h12h13h12h13h12h13h13---|
g ------------------------------|
d ------------------------------|
a ------------------------------|
d ------------------------------|

e ------------------------------|
b ------------------------------|
g -9h10h9h10h9h10h9h10h9--------|
d ------------------------------|
a ------------------------------|
d ------------------------------|

e ------------------------------|
b -12h13h12h13h12h13h12h13h13---|
g ------------------------------|
d ------------------------------|
a ------------------------------|
d ------------------------------| etc...

Verses are the same


(The Witch is dead it's the ghouls night out...)

rhythm;
e --------------------------|
b --------------------------|
g --------------------------|
d --5-5-5-2-----5-5-5-2-----|
a --5-5-5-2-----5-5-5-2-----|
d --5-5-5-2-----5-5-5-2-----| etc...

lead:

e ------------------------------|
b ------------------------------|
g ------------------------------|
d -2h3h2h3h2h3h2h3h3------------|
a ------------------------------|
d ------------------------------|

e ------------------------------|
b ------------------------------|
g -7h8h7h8h7h8h7h8h7------------|
d ------------------------------|
a ------------------------------|
d ------------------------------| x3


(So scream aahhhhhhhhhh)

rhythm;

e ----------------------------------|
b ----------------------------------|
g ----------------------------------|
d --5-5-5-2------5-5-5--4-4-4-3--2--|
a --5-5-5-2------5-5-5--4-4-4-3--2--|
d --5-5-5-2------5-5-5--4-4-4-3--2--|

e ---------------------------|
b ---------------------------|
g ---------------------------|
d -5-5-5--4-4-4-3--2---------|
a -5-5-5--4-4-4-3--2---------|
d -5-5-5--4-4-4-3--2---------| x4

lead;

e ------------------------------|
b ------------------------------|
g -9h10h9h10h9h10h9h10h9--------|
d ------------------------------|
a ------------------------------|
d ------------------------------|

e ------------------------------------|
b ------------------------------------|
g --12h13h12-11~-9h10h9h10h9h10h9h10--|
d ------------------------------------|
a ------------------------------------|
d ------------------------------------| x4


and then it basically repeats itself with a few variations which you can figure out 
easily just by listening to it.
Suggest correction
What's this?
You can suggest a correction to this tab. Community and Mods will review your correction and vote to approve or reject it.
comments
We did not receive enough feedback on this tab! Please rate:
print report bad tab
1 2 3 4 5
guest
You may want to rate the tab now too:
select rating
Please do not post tabs as comments. Select "correction" instead!