Oops, an error
Loading. Please wait.

El Camino Chords

157 views 6 this week
4 commentsread comments
1 2 3 4 5
x 3
add to favorites
launch autoscroll
font size
0
reset
transpose
0
reset
display chords
guitar tuner
Autoscroll
slow
fast
+/-
esc
set tempo
stop
Help us to improve Ultimate-Guitar.com Take our survey!
×
Author
SONG:   EL CAMINO
ARTIST: FRANKIE BALLARD
TAB BY: DON CZARSKI
EMAIL:  GUITARZAN7@HOTMAIL.COM


                        EL CAMINO
                     FRANKIE BALLARD

INTRO:
          
E ----------------------------|----------------------|
B ----------------------------|----------------------|
G --------3-2-0-0---3--2-0-0--|--3-2-0-0---3--2-0-0--|
D --------3-2-0-0---3--2-0-0--|--3-2-0-0---3--2-0-0--|
A -1-0------------------------|----------------------|
E -----3----------------------|----------------------|


NOTE: Play the following RIFF throughout the VERSE:
 
        - RIFF -
E ----------------------|
B ----------------------|
G --3-2-0-0---3--2-0-0--|
D --3-2-0-0---3--2-0-0--|
A ----------------------|
E ----------------------|


VERSE:  (RIFF - Listen for timing)

I've been tired of this white bred town
Same old people just hangin' around
Walk in circles, no where bound
Yeah, and it's gettin' me down 
Kick it in boys


I've got a memory, that's for sure
Yeah knock knock knocking on my front door
No you don't love me anymore
 (End RIFF - let last notes ring)
Honey, that's what the sound of the wheels are for


CHORUS:
          C                       D
I wanna trade it all in on some cheap sunglasses
         G                  Em
Park an old air stream on a desert floor

      C
With nothin' to lose 
     D                  G  G
And nobody keepin' score

    C                  D
So get me a dog and an El Camino
 G                        Em
Roll a couple dice at the Indian casino

            C
Take this heartache
          D                   G
Somwhere you've never been before

E ------------------------------------|
B ------------------------------------|
G --3-2-0---------------3-2-0---------|
D --3-2-0---------------3-2-0---------|
A ------------------------------------|
E --------5-3-5-6-5-3---------6-5-4-3-|


VERSE:  (RIFF - Listen for timing)

Yeah you the one that said goodbye
Thinkin' you could come back just any old time
You're movin' on is just a lie
  (End RIFF - let last notes ring)
Honey I'll show you what gone looks like


CHORUS:
          C                       D
I wanna trade it all in on some cheap sunglasses
         G                  Em
Park an old air stream on a desert floor

      C
With nothin' to lose 
     D                   G  G
And nobody keepin' score

    C                  D
So get me a dog and an El Camino
 G                        Em
Roll a couple dice at the Indian casino

            C
Take this heartache
          D                   G    
Somwhere you've never been before


E -------------------|
B -------------------|
G --3-2-0---3-2-0-0--|
D --3-2-0---3-2-0-0--|
A -------------------|
E -------------------|


BREAK:
      D    C  Bm
Woh whoah (oh oh)
 C    D   C  Bm  D
Woh whoah

      D    C  Bm
Woh whoah (oh oh)
 C    D   C  Bm  D
Woh whoah


E ----------------------------------|
B ----------------------------------|
G --0-2-0-0---3-2-0-0--3-2-0--3-2-0-|
D --0-2-0-0---3-2-0-0--3-2-0--3-2-0-|
A ----------------------------------|
E ----------------------------------|


CHORUS:

Well, here I go
          C                       D
I wanna trade it all in on some cheap sun glasses
         G                  Em
Park an old air stream on a desert floor

      C
With nothin' to lose 
     D                  G  G
And nobody keepin' score

    C                  D
So get me a dog and an El Camino
 G                        Em
Roll a couple dice at the Indian casino

            C
Take this heartache
          D                   G   
Somwhere you've never been before

D
Ah, yeah
            C
Take this heartache 
           D                   G
Somewhere you've never been before

E ----------------------|
B ----------------------|
G --3-2-0---------------|
D --3-2-0---------------|
A ----------------------|
E --------5-3-5-6-5-3---|


Yeah yeah yeah


E -----------------|
B -----------------|
G --3-2-0----------|
D --3-2-0----------|
A -----------------|
E --------6-5-4-3--|

                            G
E ---7---7---6---6---5---5--3--
B -9---9---8---8---7---7----3--
G --------------------------4--
D --------------------------5--
A --------------------------5--
E --------------------------3--
Suggest correction
Give kudos to tab author, rate the tab!
1 2 3 4 5
comments
print report bad tab
4 comments total. Showing first comments.
0 reply
zmusic 10 Sep 08, 2016 08:43 PM

Thank you for this song!! Much appreciated! Great job Don!
Thanks again

0 reply
guillermopeitto 4,773 Sep 08, 2016 08:49 PM

wow really nice so so much fun!!!!

0 reply
joedwright 10 Sep 09, 2016 06:41 PM

The lyric is 'old air stream'

guest
You may want to rate the tab now too:
select rating
Wanna post a correction for this tab? Suggest correction