Oops, an error
Loading. Please wait.

Sweet Time Chords

109 views 3 this week
3 commentsread comments
1 2 3 4 5
x 5
add to favorites
launch autoscroll
font size
0
reset
transpose
0
reset
display chords
guitar tuner
Autoscroll
slow
fast
+/-
esc
set tempo
stop
Help us to improve Ultimate-Guitar.com Take our survey!
×
Author
SONG:   SWEET TIME
ARTIST: FRANKIE BALLARD
TAB BY: DON CZARSKI
EMAIL:  GUITARZAN7@HOTMAIL.COM


                SWEET TIME
             FRANKIE BALLARD


INTRO:
    D               Em         G     
E ---------------------------------
B ---------------------------------
G ---------------------------------
D ----------7----------------------
A --9-9-7-9---9---7-5h7-7-5-7-5----
E ------------------------------7--

    D               Em         G     
E ---------------------------------
B ---------------------------------
G ---------------------------------
D ----------7----------------------
A --9-9-7-9---9---7-5h7-7-5-7-5----
E ------------------------------7--


VERSE:
            D                       G
Well that needle had climbed to 195 MPH

          D
And this boot of mine wants to kick that pedal 
       G
Square in the face

                 D
This ain't that kinda night

There ain't a finish line
     G
No, this ain't a race

              D
I bought the bench not the buckets

And I'm feeling lucky
  G
Slide on into me baby


CHORUS:
                   D
We're taking our sweet time
      A         G
In a real fast car

Ain't running no, running no

 D
Red lights tonight
      A          G
Just sitting in park

       D
Yeah, hugging every curve
                   A
Of your long lane road
 G
400 horses on a slow road

      D                A       G
That Camaro kiss, two lonely hearts

                         D
Yeah, we're taking our sweet time
      A         G
In a real fast car 

             D   
Yeah, yeah, yeah

    D               Em         G     
E ---------------------------------
B ---------------------------------
G ---------------------------------
D ----------7----------------------
A --9-9-7-9---9---7-5h7-7-5-7-5----
E ------------------------------7--


VERSE:
           D
Well, two kids starting fire

And that cigarette lighter
      G
Don't even work, eh ha

        D
It's a windows fogging up

Kinda love spitting through
   G
A torn up Haggard t-shirt

                 D
Well take those big blue eyes

Baby watch those thighs
        G
Don't knock us outta first

           D
Yeah, the heat is on the rise

I'm trying to memorize
G
Every single one of your curves


CHORUS:
                   D
We're taking our sweet time
      A         G
In a real fast car

Ain't running no, running no

 D
Red lights tonight
      A          G
Just sitting in park

       D
Yeah, hugging every curve
                   A
Of your long lane road
 G
400 horses on a slow road

      D                A       G
That Camaro kiss, two lonely hearts

                         D
Yeah, we're taking our sweet time
      A         G
In a real fast car 


BREAK:
          Bm
With the radio on

Riding the brakes

    G
We ain't got nothing

But time to waste

   Bm
So let's take

The long way home girl
         G
Whatcha say


CHORUS:
                         D
Yeah, We're taking our sweet time
      A         G
In a real fast car

Ain't running no, running no

 D
Red lights tonight
      A          G
Just sitting in park

     D
Oh, hugging every curve
                   A
Of your long lane road
 G
400 horses on a slow road

      D                A       G
That Camaro kiss, two lonely hearts

                         D
Yeah, we're taking our sweet time
      A         G
In a real fast car 

                             D
Yeah, now we're taking our sweet time
      A         G
In a real fast car 

             D    Em
Yeah, yeah, yeah

    D               Em         G     
E ---------------------------------
B ---------------------------------
G ---------------------------------
D ----------7----------------------
A --9-9-7-9---9---7-5h7-7-5-7-5----
E ------------------------------7--

 G            D   Em  G
Yeah, yeah, yeah

    D               Em         G     
E ---------------------------------
B ---------------------------------
G ---------------------------------
D ----------7----------------------
A --9-9-7-9---9---7-5h7-7-5-7-5----
E ------------------------------7--
Suggest correction
comments
print report bad tab
3 comments total.
+1 reply
zmusic 10 Sep 01, 2016 05:40 PM

Don is the man! Keeping us stocked with the newest and best tabs!

Thanks so much Don for doing this, this song is so great!

Keep up the great wormy friend!

0 reply
DON CZARSKI [tm] 23,702 Sep 01, 2016 06:02 PM

Thank you very much for the nice comment...
I am trying to do a lot more FRANKIE BALLARD songs for you to enjoy.

0 reply
DON CZARSKI [tm] 23,702 Sep 01, 2016 06:02 PM

Thank you very much for the nice comment...
I am trying to do a lot more FRANKIE BALLARD songs for you to enjoy.

guest
You may want to rate the tab now too:
select rating
Wanna post a correction for this tab? Suggest correction