Oops, an error
Loading. Please wait.

Duet chords

version 2
version 2

Whole song

127 views 18 this week
no commentswrite comment
1 2 3 4 5
3 more votes to show rating
add to favorites
×
Save as Personal and add changes to this tab that will be seen only by you. Learn more ›
×
You can save this tab as Personal to edit and correct it or add notes. All changes will be seen only by you. Learn more »
launch autoscroll
font size
0
reset
transpose
0
reset
display chords
guitar tuner
edit
Autoscroll
slow
fast
+/-
esc
set tempo
stop
Strumming
There is no strumming pattern for this song yet. and get +5 IQ
[Intro]
  You got nice   eyes
e|5---4---2------0---|
B|---------------2---|
G|---------------2---|
D|---------------2---|
A|---------------0---|
E|---------------0---|

[Verse]
             C#m
They're very blue
        Bm
That is why
          E
I look at you
          A
I look at you
          C#m
I look at you
          Bm
I look at you
          E
I look at you
         A
Makin' a list
             C#m
Of people to kiss
              Bm
The list is a million YOUs long
     E
Just YOUs all the way down

[Instrumental]
e|--------------------------------------------------5-------0-----|
G|8--7/5/7--3-----8--7/5/7--2-----8--7/5/7--0-------5-------0-----|
G|0--0/0/0--0-----0--0/0/0--0-----0--0/0/0--0-------6--7h6--1-----|
D|--------------------------------------------------7-------2-----|
A|--------------------------------------------------7-------2-----|
E|--------------------------------------------------5-------0-----|

[Verse]
           A
Olive oil soft
            C#m
And laundry warm
         Bm
I know I like you
                      E
But I don't know what for
            A
With my boy Ronnie
             C#m
Listening to Connie
           Bm
I couldn't stop if I tried
            E
I will love you til I die
A            C#m
   I look at you
          Bm    E
I look at you

[Outro]
e|--------------------------------------------------5-------0-----|
G|8--7/5/7--3-----8--7/5/7--2-----8--7/5/7--0-------5-------0-----|
G|0--0/0/0--0-----0--0/0/0--0-----0--0/0/0--0-------6--7h6--1-----|
D|--------------------------------------------------7-------2-----|
A|--------------------------------------------------7-------2-----|
E|--------------------------------------------------5-------0-----|


************************************

| /  Slide up
| h  Hammer-on

************************************

            
            
Suggest correction
Creating personal tab
Creating personal tab
You can edit any tab online and save it as your Personal.

You can edit, replace or remove any tab part or add personal notes – all changes will be seen only by you.

Personal tabs can be accessed anytime from any device, even offline.
Learn more »
Give kudos to tab author, rate the tab!
1 2 3 4 5
comments
print report bad tab
guest
You may want to rate the tab now too:
select rating
Wanna post a correction for this tab? Suggest correction