Oops, an error
Loading. Please wait.

Fresh Pond Krill Cover tab

397 views 6 this week
no commentswrite comment
1 2 3 4 5
3 more votes to show rating
add to favorites
×
Save as Personal and add changes to this tab that will be seen only by you. Learn more ›
×
You can save this tab as Personal to edit and correct it or add notes. All changes will be seen only by you. Learn more »
launch autoscroll
font size
0
reset
how to read this tab
guitar tuner
edit
Autoscroll
slow
fast
+/-
esc
set tempo
stop
[Verse]
  C  Em                             C  Em
e|0--0------------|----------------|0--0------------|----------------|
B|1--0------------|----------------|1--0------------|----------------|
G|0--0------------|----------------|0--0------------|----------------|
D|2--2------------|----------------|2--2------------|----------------|
A|3--2------------|0-0-------------|3--2------------|0-0-------------|
E|x--0------------|----3-3---------|x--0------------|----3-3---------|
            do you                           want to 

  E7 Fmaj7                          E7 Fmaj7
e|0--0------------|----------------|0--0------------|----------------|
B|3--1------------|----------------|3--1------------|----------------|
G|1--2------------|----------------|1--2------------|----------------|
D|0--3------------|----------------|0--3------------|----------------|
A|2--x------------|0-0-------------|2--x------------|0-0-------------|
E|0--x------------|----1-1---------|0--x------------|----1-1---------|
            go see                          a movie? 

  C  Em                             C  Em
e|0--0------------|----------------|0--0------------|----------------|
B|1--0------------|----------------|1--0------------|----------------|
G|0--0------------|----------------|0--0------------|----------------|
D|2--2------------|----------------|2--2------------|----------------|
A|3--2------------|0-0-------------|3--2------------|0-0-------------|
E|x--0------------|----3-3---------|x--0------------|----3-3---------|
           my aunt                            runs a

  E7 Fmaj7                          E7 Fmaj7
e|0--0------------|----------------|0--0------------|----------------|
B|3--1------------|----------------|3--1------------|----------------|
G|1--2------------|----------------|1--2------------|----------------|
D|0--3------------|----------------|0--3------------|----------------|
A|2--x------------|0-0-------------|2--x------------|0-0-------------|
E|0--x------------|----1-1---------|0--x------------|----1-1---------|
           theater                      in fresh pond 
 
[Chorus]
     C Em Am
when I go home
Am              Dm       B
i stare out the window - ow 
    C   Em Am
but all I see sometimes
       Dm     C
is the window pane 
               C   Em Am
you claim that I'm no turd 
Am               FMaj      F#maj7
how could i just take your word, 
     C   Em Am
when all I see sometimes 
   Dm     C
is my own shame? 

[Verse]
  C  Em                             C  Em
e|0--0------------|----------------|0--0------------|----------------|
B|1--0------------|----------------|1--0------------|----------------|
G|0--0------------|----------------|0--0------------|----------------|
D|2--2------------|----------------|2--2------------|----------------|
A|3--2------------|0-0-------------|3--2------------|0-0-------------|
E|x--0------------|----3-3---------|x--0------------|----3-3---------|
            my dad                          calls me 

  E7 Fmaj7                          E7 Fmaj7
e|0--0------------|----------------|0--0------------|----------------|
B|3--1------------|----------------|3--1------------|----------------|
G|1--2------------|----------------|1--2------------|----------------|
D|0--3------------|----------------|0--3------------|----------------|
A|2--x------------|0-0-------------|2--x------------|0-0-------------|
E|0--x------------|----1-1---------|0--x------------|----1-1---------|
        to tell me                       he loves me  

  C  Em                             C  Em
e|0--0------------|----------------|0--0------------|----------------|
B|1--0------------|----------------|1--0------------|----------------|
G|0--0------------|----------------|0--0------------|----------------|
D|2--2------------|----------------|2--2------------|----------------|
A|3--2------------|0-0-------------|3--2------------|0-0-------------|
E|x--0------------|----3-3---------|x--0------------|----3-3---------|
      and why not?                      but why should?

  E7 Fmaj7                          E7 Fmaj7
e|0--0------------|----------------|0--0------------|----------------|
B|3--1------------|----------------|3--1------------|----------------|
G|1--2------------|----------------|1--2------------|----------------|
D|0--3------------|----------------|0--3------------|----------------|
A|2--x------------|0-0-------------|2--x------------|0-0-------------|
E|0--x------------|----1-1---------|0--x------------|----1-1---------|
        were i him                      can i say i would?  

[Chorus]
     C Em Am
when I go home
Am              Dm       B
i stare out the window - ow 
    C   Em Am
but all I see sometimes
       Dm     C
is the window pane 
               C   Em Am
you claim that I'm no turd 
Am               FMaj      F#maj7
how could i just take your word, 
     C   Em Am
when all I see sometimes 
   Dm     C
is my own pain?

[Outro]
(Repeat this riff)
e|----------------------------------------------------------------0-|
B|------0----------0----------0----------0----------0----------0-3--|
G|------0----------0----------0----------0----------0----------0----|
D|------------------------------------------------------------------|
A|3---3--3-------------------------0---0--0-------------------------|
E|-----------3---3--3---4---4--4--------------4---4--4---1---1--1---|

who wouldn't wanna be outwardly directed? 
but i can't get over my fat bony skull 
and who doesn't sometimes feel totally defective 
when for each light that flicks on i find 
two shattered bulbs 
do you 
want to 
go see 
a movie?


************************************

| x  Dead note

************************************

            
            
Suggest correction
Creating personal tab
Creating personal tab
You can edit any tab online and save it as your Personal.

You can edit, replace or remove any tab part or add personal notes – all changes will be seen only by you.

Personal tabs can be accessed anytime from any device, even offline.
Learn more »
Give kudos to tab author, rate the tab!
1 2 3 4 5
comments
print report bad tab
guest
You may want to rate the tab now too:
select rating
Wanna post a correction for this tab? Suggest correction