Oops, an error
Loading. Please wait.
391 views 27 this week
no commentswrite comment
1 2 3 4 5
x 3
add to favorites
launch autoscroll
font size
0
reset
how to read this tab
guitar tuner
×
Best way to learn
"Im 20"
Autoscroll
slow
fast
+/-
esc
set tempo
stop
Author
Difficulty
  follow
novice
[Verse 1]
E----------------------------------------------------------------
B----------------------------------------------------------------
G---7-------5---0------------------------------------------------
D-------------------7---7---7---7---7---7---7---7---7---7---7---7
A----------------------------------------------------------------
E----------------------------------------------------------------

E----------------------------------------------------------------
B----------------------------------------------------------------
G---7-------5---0------------------------------------------------
D-------------------7---7---7---7---7---7---7---7---5---5---5---5
A----------------------------------------------------------------
E---------------------------------------------------------------- (x2)

[Chorus]
E----------------------------
B---7-----------5------------
G---7-----------5-----------4
D---7-----------5-----------5
A---5-----------3-----------5
E---------------------------3 (x2)

[Verse 2]
E----------------------------------------------------------------
B----------------------------------------------------------------
G---7-------5---0------------------------------------------------
D-------------------7---7---7---7---7---7---7---7---7---7---7---7
A----------------------------------------------------------------
E----------------------------------------------------------------

E----------------------------------------------------------------
B----------------------------------------------------------------
G---7-------5---0------------------------------------------------
D-------------------7---7---7---7---7---7---7---7---5---5---5---5
A----------------------------------------------------------------
E---------------------------------------------------------------- (x2)

[Chorus]
E----------------------------
B---7-----------5------------
G---7-----------5-----------4
D---7-----------5-----------5
A---5-----------3-----------5
E---------------------------3 (x2)

[Interlude]
E----------------------------------------------------------------
B----------------------------------------------------------------
G---7-------5---0------------------------------------------------
D-------------------7---7---7---7---7---7---7---7---7---7---7---7
A----------------------------------------------------------------
E----------------------------------------------------------------

E----------------------------------------------------------------
B----------------------------------------------------------------
G---7-------5---0------------------------------------------------
D-------------------7---7---7---7---7---7---7---7---5---5---5---5
A----------------------------------------------------------------
E---------------------------------------------------------------- (x2)

[Chorus]
E----------------------------
B---7-----------5------------
G---7-----------5-----------4
D---7-----------5-----------5
A---5-----------3-----------5
E---------------------------3 (x2)
Suggest correction
Give kudos to tab author, rate the tab!
1 2 3 4 5
comments
print report bad tab
guest
You may want to rate the tab now too:
select rating
Wanna post a correction for this tab? Suggest correction