Oops, an error
Loading. Please wait.

Too Dark Chords

298 views 57 this week
no commentswrite comment
1 2 3 4 5
1 last vote to show rating
add to favorites
launch autoscroll
font size
0
reset
transpose
0
reset
simplify chords
display chords
guitar tuner
Autoscroll
slow
fast
+/-
esc
set tempo
stop
Help us to improve Ultimate-Guitar.com Take our survey!
×
Author
Difficulty
novice
Chords:

Bmaj:  7-9-9-8-7-7
Emaj:  x-7-9-9-9-x
C#m:   x-4-6-6-5-4
F#maj: x-9-11-11-11-x


[Verse 1]

  B
I wish I had some control, you embarrass me in full
  E                                                       B
I feel low low low. I don't wanna know how flustered you were

B
I just wanna hear you say you were wrong
           E
How easily I become not real, like a bug you brush off your ear
           B
Your just dust. I'm just dust.


[Chorus 1]

B
If your love was strong as my shame, I'd marry you and take your name
        E
But its not, you'll never get it. So with this, I'll just forget it
      B
Too dark

[Verse 2]

     I       stand                    alone                           Lucky              and
e|------------------------------------------------------------------------------------------------------|
B|------------------------------------------------------------------------------------------------------|
G|------------------------------------------------------------------------------------------------------|
D|------------------------------------------------------------------------------------------------------|
A|-----------------------------------9---9---9---9---9---9---9---9-----------------------------------7--|
E|---9---9---9---9---9---9---9---9-----------------------------------7---7---7---7---7---7---7---7------|

      unknown
e|-----------------------------|
B|-----------------------------|
G|-----------------------------|
D|-----------------------------|
A|---7---7---7---7---7---7---7-|
E|-----------------------------|

     Do   I   belong?                 Do     I     belong?            Do    I    belong?
e|------------------------------------------------------------------------------------------------------|
B|------------------------------------------------------------------------------------------------------|
G|------------------------------------------------------------------------------------------------------|
D|------------------------------------------------------------------------------------------------------|
A|-----------------------------------9---9---9---9---7---7---7---7--------------------------------------|
E|---9---9---9---9---9---9---9---9-----------------------------------7---7---7---7---7---7---7---7---9--|

      Oh
e|-----------------------------|
B|-----------------------------|
G|-----------------------------|
D|-----------------------------|
A|-----------------------------|
E|---9---9---9---9---9---9---9-|

     When I know I'm                 not the                          best girl in the
e|------------------------------------------------------------------------------------------------------|
B|------------------------------------------------------------------------------------------------------|
G|------------------------------------------------------------------------------------------------------|
D|------------------------------------------------------------------------------------------------------|
A|-----------------------------------9---9---9---9---9---9---9---9-----------------------------------7--|
E|---9---9---9---9---9---9---9---9-----------------------------------7---7---7---7---7---7---7---7------|

   room
e|-----------------------------|
B|-----------------------------|
G|-----------------------------|
D|-----------------------------|
A|---7---7---7---7---7---7---7-|
E|-----------------------------|

     I tell                       myself                          I'm the best            you can
e|------------------------------------------------------------------------------------------------------|
B|------------------------------------------------------------------------------------------------------|
G|------------------------------------------------------------------------------------------------------|
D|------------------------------------------------------------------------------------------------------|
A|-----------------------------------9---9---9---9---9---9---9---9-----------------------------------7--|
E|---9---9---9---9---9---9---9---9-----------------------------------7---7---7---7---7---7---7---7------|

    do
e|-----------------------------|
B|-----------------------------|
G|-----------------------------|
D|-----------------------------|
A|---7---7---7---7---7---7---7-|
E|-----------------------------|

     Do   I   belong?                 Do     I     belong?            Do    I    belong?
e|------------------------------------------------------------------------------------------------------|
B|------------------------------------------------------------------------------------------------------|
G|------------------------------------------------------------------------------------------------------|
D|------------------------------------------------------------------------------------------------------|
A|-----------------------------------9---------------7--------------------------------------------------|
E|---9---------------------------------------------------------------7---7---7---7---7---7---7---7---9--|

      No
e|-----------------------------|
B|-----------------------------|
G|-----------------------------|
D|-----------------------------|
A|-----------------------------|
E|---9---9---9---9---9---9---9-|

[Verse 3]

C#m           F#
I drink bad coffee
B                  E
Hope that you'll call me
C#m               F#         E
Never look back, never look back
       B         C#m
Never look back, No

[Chorus 2]

C#m         F#
When I get bored
   B              E
I crash upon the shore
C#m       F#    E
Too dark, too dark
     B     C#m
Too dark, Oh
Suggest correction
Give kudos to tab author, rate the tab!
1 2 3 4 5
comments
print report bad tab
guest
You may want to rate the tab now too:
select rating
Wanna post a correction for this tab? Suggest correction