Oops, an error
Loading. Please wait.

Im Not A Juvenile Delinquent Bass Tab

7 views 1 this week
no commentswrite comment
1 2 3 4 5
3 more votes to show rating
add to favorites
launch autoscroll
font size
0
reset
guitar tuner
Autoscroll
slow
fast
+/-
esc
set tempo
stop
Help us to improve Ultimate-Guitar.com Take our survey!
×
Author
I’m Not A Juvenile Delinquent
1956 release by Doo Wop band Frankie Lymon And The Teenagers with Frankie
Lymon aged just 14 years old. Tab by bass 50611. This is how I would play 
It on stage with a simpler version that follows the melody.
Hope you like it.  Comments at bass254@btinternet.com

Symbol '.' Is A Pause 

Intro:
  “I’m Not A Juvenile Delinquent”...
G|-----------------------------------------|
D|-----------------------------------------|
A|-----------------------------------------|
E|-----------------------------------1---1-| 

                                          (Play This Bit x2)
G|-------------------------------------------------------|
D|-3--3---0--0------------0-2-3--3---0--0------------0-2-|
A|--------------1--1---3-------------------1--1---3------|
E|-------------------------------------------------------|

Verse 1:
                                          (Play This Bit x2)
G|-------------------------------------------------------|
D|-3--3---0--0------------0-2-3--3---0--0------------0-2-|
A|--------------1--1---3-------------------1--1---3------|
E|-------------------------------------------------------|

Verse 2:
G|-------------------------------------------------------|
D|-3--3---0--0------------0-2-3--3---0--0------------0-2-|
A|--------------1--1---3-------------------1--1---3------|
E|-------------------------------------------------------|

G|------------------------------------------------|
D|-3--3---0--0------------0-2-3--3--------3----3--|
A|--------------1--1---3------------1--1----3---3-|
E|------------------------------------------------|

Bridge:
G|----------------------------------------------------------------|
D|------------------3---3---3---3----------------------5--5--5--5-|
A|-1---1---1---1------3---3--3----3---1---1---1---1---------------|
E|---1---1---1---1----------------------1---1---1---1-------------|

G|--------------|
D|----------0-2-|
A|-3--3--3------|
E|--------------|

Verse 3:
G|-------------------------------------------------------|
D|-3--3---0--0------------0-2-3--3---0--0------------0-2-|
A|--------------1--1---3-------------------1--1---3------|
E|-------------------------------------------------------|

G|------------------------------------------------|
D|-3--3---0--0------------0-2-3--3--------3---3---|
A|--------------1--1---3------------1--1----3---3-|
E|------------------------------------------------|

Bridge:                  ‘.’ [  Quavers   ]
G|-------------------------------------------------------------|
D|------------------3---3--------------------------------------|
A|-1---1---1---1------3---3--------------------1---1---1---1---|
E|---1---1---1---1------------1-1-1-1-1-1-1------1---1---1---1-|

G|--------------------------|
D|-5--5--5--5-----------0-2-|
A|-------------3--3--3------|
E|--------------------------|

Verse 4:
G|-------------------------------------------------------|
D|-3--3---0--0------------0-2-3--3---0--0------------0-2-|
A|--------------1--1---3-------------------1--1---3------|
E|-------------------------------------------------------|

G|------------------------------------------------|
D|-3--3---0--0------------0-2-3--3--------3---3---|
A|--------------1--1---3------------1--1----3---3-|
E|------------------------------------------------|

Outro:                                  (Repeat To fade/End)
G|-------------------------------------------------------|
D|-3--3---0--0------------0-2-3--3---0--0------------0-2-|
A|--------------1--1---3-------------------1--1---3------|
E|-------------------------------------------------------|



I'm not a juvenile delinquent
No-no-no-no-no-no-no-no
No-no-no-no-no-no-no-no
No-no-no, I'm not a juvenile delinquent
Do the things that's right
And you'll do nothing wrong
Life will be so nice, you'll be in paradise
I know, because I'm not a juvenile delinquent

But listen boys and girls
You need not be blue
And life is what you make of it
It all depends on you
I know, because I'm not a juvenile delinquent

It's easy to be good, it's hard to be bad
Stay out of trouble, and you be glad
Take this tip from me, and you will see
How happy you will be
Oh-oh, boys and girls, this is my story
And I add all of my glory
I know, because I'm not a juvenile delinquent

It's easy to be good, it's hard to be bad
Stay out of trouble, and you be glad
Take this tip from me, and you will see
How happy you will be
Oh-oh, boys and girls, this is my story
And I add all of my glory
I know, because I'm not a juvenile delinquent

No-no-no, I'm not a juvenile
No-no-no, I'm not a juvenile
Suggest correction
Give kudos to tab author, rate the tab!
1 2 3 4 5
comments
print report bad tab
guest
You may want to rate the tab now too:
select rating
Wanna post a correction for this tab? Suggest correction