Oops, an error
Loading. Please wait.

Cant Take My Eyes Off You bass

4,771 views 60 this week
1 commentread comment
1 2 3 4 5
x 3
add to favorites
×
Save as Personal and add changes to this tab that will be seen only by you. Learn more ›
×
You can save this tab as Personal to edit and correct it or add notes. All changes will be seen only by you. Learn more »
launch autoscroll
font size
0
reset
guitar tuner
edit
Autoscroll
slow
fast
+/-
esc
set tempo
stop
Author
Difficulty
Intro
G|---------------------------------------------------------------------------|
D|---------------------------------------------------------------------------|
A|-7--7-7---7--7-7---7--7-7--7-7--7-7--7-7--7-7---7--7-7---7--7-7--7-7--7-7--|
E|---------------------------------------------------------------------------|


Verse 1: "you're just too good to be true..."
G|-----|-----|-----|-----|-----|
D|-----|---7-|-7-7-|-7---|-----|
A|-7-7-|-7---|-----|---7-|-7-7-|
E|-----|-----|-----|-----|-----|
   x12          x7         x11
"Pardon the way that I stare..."
G|-----|-----|-----|-----|-----|
D|-----|---7-|-7-7-|-7---|-----|
A|-7-7-|-7---|-----|---7-|-7-7-|
E|-----|-----|-----|-----|-----|
   x12          x7         x11


Pre-Chorus Instrumentation: 
G|-----------------------------------------------------------------------------|
D|---4--4-4--4-----------2--2-2---2-2---2-2----4--4-4--4-----------2--2-2--2---|
A|-4-----------2--2-2--2---------------------4-----------2--2-2--2-----------4-|
E|-----------------------------------------------------------------------------|


Chorus: "I Love you baby..."                                 
G|--------------4-4---4-4--4----------------------------------------------------------------------|
D|4-4----4-4--4-----4--------6-6----6-6-----------------4-4----4-4------------------2-2----2-2----|
A|-----4--------------------------6-----6-4-4----4-4--4------4------4-2-2----2-2--2------2-----2-4|
E|---------------------------------------------4---------------------------2----------------------|
"'Oh Pretty Baby..."                                    "Let me love you baby..."
G|---------------4-4----4-4--4--------------------------|---------------------|
D|-4-4----4-4--4------4--------6-6----6-6---------------|-4--4--4--4--4--4----|
A|------4---------------------------6------6-4-4----4-4-|-------------------5-|
E|------------------------------------------------4-----|---------------------|


Verse 2: "you're just too good to be true..."
G|---|-----|---5-|-5-5-|-5---|-----|
D|-5-|-5-5-|-5---|-----|---5-|-5-5-|
A|---|-----|-----|-----|-----|-----|
E|---|-----|-----|-----|-----|-----|
       x11          x7         x11


Pre-Chorus Instrumentation: 
G|---------------------------------|
D|-4--4-4--4-----------2--2-2--2---|
A|-----------2--2-2--2-----------4-|
E|---------------------------------|


Final Chorus: "I Love you baby..."                                 
G|--------------4-4---4-4--4----------------------------------------------------------------------|
D|4-4----4-4--4-----4--------6-6----6-6-----------------4-4----4-4------------------2-2----2-2----|
A|-----4--------------------------6-----6-4-4----4-4--4------4------4-2-2----2-2--2------2-----2-4|
E|---------------------------------------------4---------------------------2----------------------|
"'Oh Pretty Baby..."    
G|--------------4-4---4-4--4----------------------------------------------------------------------|
D|4-4----4-4--4-----4--------6-6----6-6-----------------4-4----4-4------------------2-2----2-2----|
A|-----4--------------------------6-----6-4-4----4-4--4------4------4-2-2----2-2--2------2-----2-4|
E|---------------------------------------------4---------------------------2----------------------|

===============================================================================
Suggest correction
Creating personal tab
Creating personal tab
You can edit any tab online and save it as your Personal.

You can edit, replace or remove any tab part or add personal notes – all changes will be seen only by you.

Personal tabs can be accessed anytime from any device, even offline.
Learn more »
Give kudos to tab author, rate the tab!
1 2 3 4 5
comments
print report bad tab
1 comment total.
0 reply
patrickrules17 10 May 01, 2016 04:59 PM

Letting you know, in comparison to the original recording of the song, this tab sounds like it's entire half steps below the actual notes at times.

guest
You may want to rate the tab now too:
select rating
Wanna post a correction for this tab? Suggest correction