Oops, an error
Loading. Please wait.

Cant Take My Eyes Off You Tab

version 1
version 1

Whole song

42,106 views 30 this week
no commentswrite comment
1 2 3 4 5
please rate
add to favorites
launch autoscroll
font size
0
reset
how to read this tab
guitar tuner
Autoscroll
slow
fast
+/-
esc
set tempo
stop
Help us to improve Ultimate-Guitar.com Take our survey!
×
Difficulty
intermediate
Frankie Valli - Can't Take My Eyes off You
Tabbed by: Tim Gilbert

Similar to other versions, but I use different chord voicings in my band, and a few 
have been made (minor chord used in verse). I also tabbed the 3rd verse which is in G. It 
seem like a long tab, but its very easy to get the hang of, and the chords are easy to fret.
~~~~~~~~~~~~~~~~~~~~~~~~~~~~~~~~~~~~~~~~~~~~~~~~~~~~~~~~~~~~~~~~~~~~
VERSE 1 AND 2 CHORDS
		     E
--------------------4-|
--------------------5-|
--------------------4-|
--------------------2-|
--------------------2-|
--------------------0-|
1: You're just too good to be true
2: Pardon the      way that I stare

                 Emaj7
-------------------4-|
-------------------4-|
-------------------4-|
-------------------2-|
---------------------|
---------------------|
1: Can't take my   eyes off of you
2: There's nothing else to compare

               E7
-----------------5-|
-----------------3-|
-----------------4-|
-----------------2-|
-----------------2-|
-----------------0-|
1: You'd be like heaven to touch
2: The sight of  you leaves me weak

                Aadd9              Am9
----------------7--------------------7-|
----------------5--------------------5-|
----------------6--------------------5-|
----------------7--------------------7-|
----------------0--------------------0-|
---------------------------------------|
1: I wanna      hold you so much
2: There are no words left to speak

              Am6
----------------7-|
----------------5-|
----------------5-|
----------------4-|
----------------0-|
------------------|
1: At long last love has arrived
2: So if you    feel like I feel

                E
-----------------4-|
-----------------5-|
-----------------4-|
-----------------6-|
-----------------7-|
-----------------0-|
1: And I thank   God I'm alive
2: Please let me know that it's real


                  F#7/E      Am6/E
-------------------2------------x-|
-------------------x------------7-|
-------------------3------------5-|
-------------------2------------7-|
-------------------2------------7-|
-------------------0------------0-|
1: You're just too good to be true
2: You're just too good to be true

                 Emaj13
-----------------12-|
-----------------12-|
-----------------11-|
-----------------11-|
-----------------11-|
-----------------0--|
1: Can't take my eyes off of you
2: Can't take my eyes off of you

~~~~~~~~~~~~~~~~~~~~~~~~~~~~~~~~~~~~~~~~~~~~~~~~~~~~~~~~~~~~~~~~~~~~
BRIDGE/BUILDUP
(can be separated into 2 instruments, one playing the B string notes and one playing the chords)

F#7                           C#
----------------------------------------------------|
-1--2--1--2--1--2-5--4--3-------------------5--4----|
-3--3--3--3--3--3----------5--6--5--6--5--6-------7-|
-4--4--4--4--4--4-4--4--4--6--6--6--6--6--6-6--6--6-|
---------------------------------4------------------|
----------------------------------------------------|
 daada daada daadada da da daada daada daadada da da

F#7			    C#
-------------------------------------------|
-1--2--1--2--1--2-5--4--3--------------5~~-|
-3--3--3--3--3--3----------5--6--5--6------|
-4--4--4--4--4--4-4--4--4--6--6--6--6--6---|~ (then drum buildup)
---------------------------------4---------|
-------------------------------------------|
 daada daada daadada da da daada daada

~~~~~~~~~~~~~~~~~~~~~~~~~~~~~~~~~~~~~~~~~~~~~~~~~~~~~~~~~~~~~~~~~~~~~
CHORUS
           F#m9             F#m9      B7
-----------4----------------4---------2-|
-----------5----------------5---------4-|
-----------2----------------2---------2-|
-----------4----------------4-----------|
-----------2----------------2-----------|
-----------2----------------2-----------|
I love you baby and if it's quite all right

           G#m7            C#m7
-----------4----------------4-|
-----------4----------------5-|
-----------4----------------4-|
-----------4----------------6-|
-----------6----------------4-|
-----------4------------------|
I need you baby to warm the lonely nights

         F#m7   B7sus4    B7       Emaj13        C#m7
---------2-------0--------0--------12-----------------------------|
---------2-------5--------4--------12------------3----------------|
---------2-------2--------2--------11------------4----------------|
---------2-------4--------4--------11------------3----------------|
---------4-------2--------2--------11------------4----------------|
---------2--------------------------0-----------------------------|
I love you baby, trust in me when I say

          F#m9                B7sus2/6   B7
-----------4--------------------4---------2-|
-----------5--------------------5---------4-|
-----------2--------------------2---------2-|
-----------4--------------------4-----------|
-----------2--------------------2-----------|
-----------2--------------------2-----------|
Oh pretty baby, don't bring me down I pray

          G#m7               C#m7
-----------4------------------4-|
-----------4------------------5-|
-----------4------------------4-|
-----------4------------------6-|
-----------6------------------4-|
-----------4--------------------|
Oh pretty baby, now that I've found you stay

           F#m7             B7sus B7
-----------2----------------0-----0--|
-----------2----------------5-----4--|
-----------2----------------2-----2--|
-----------2----------------4-----4--|
-----------4----------------2-----2--|
-----------2-------------------------|
And let me love you, let me love you, oh baby

~~~~~~~~~~~~~~~~~~~~~~~~~~~~~~~~~~~~~~~~~~~~~~~~~~~~~~~~~~~~~~~~~~~~~
VERSE 3 CHORDS
(This is the same as verse 1, except in the key of G; everything is up 3 semis)
		     G
--------------------7-|
--------------------8-|
--------------------7-|
--------------------5-|
--------------------5-|
----------------------|
3: You're just too good to be true

                 Gmaj7
-------------------7-|
-------------------7-|
-------------------7-|
-------------------5-|
---------------------|
---------------------|
3: Can't take my   eyes off of you

                 G7
-----------------8-|
-----------------6-|
-----------------7-|
-----------------5-|
-----------------5-|
-------------------|
3: You'd be like heaven to touch

                C   		      Cm
----------------8--------------------8--|
----------------8--------------------8--|
----------------9--------------------8--|
----------------10-------------------10-|
----------------10-------------------10-|
----------------8--------------------8--|
3: I wanna      hold you so much

              Cm6
----------------10-|
----------------8--|
----------------8--|
----------------7--|
-------------------|
-------------------|
3: At long last love has arrived

                 G
-----------------7--|
-----------------8--|
-----------------7--|
-----------------9--|
-----------------10-|
--------------------|
3: And I thank   God I'm alive


                  A#7/G      Cm6/G
-------------------5---------------|
-------------------x------------10-|
-------------------6------------8--|
-------------------5------------10-|
-------------------5------------10-|
-----------------------------------|
3: You're just too good to be true

                 G
-----------------7--|
-----------------8--|
-----------------7--|
-----------------9--|
-----------------10-|
--------------------|
3: Can't take my eyes off of you

~~~~~~~~~~~~~~~~~~~~~~~~~~~~~~~~~~~~~~~~~~~~~~~~~~~~~~~~~~~~~~~~~~~~~
STRUCTURE AND VOCALS

Intro (false start by drums)

Verse 1
You're just too good to be true
Can't take my eyes off you
You'd be like heaven to touch
I wanna hold you so much
At long last love has arrived
And I thank God I'm alive
You're just too good to be true
Can't take my eyes off you

Verse 2
Pardon the way that I stare
There's nothing else to compare
The sight of you leaves me weak
There are no words left to speak
So if you feel like I feel
Please let me know that it's real
You're just too good to be true
Can't take my eyes off of you

Bridge (Daa da, daa da)

Chorus
I love you baby, and if it's quite alright
I need you baby, to warm the lonely nights
I love you baby, trust in me when I say
Oh pretty baby, don't bring me down I pray
Oh pretty baby, now that I've found you stay
And let me love you, let me love you, oh baby

Verse 3 (up 3 semitones to G)
You're just too good to be true
Can't take my eyes off you
You'd be like heaven to touch
I wanna hold you so much
At long last love has arrived
And I thank God I'm alive
You're just too good to be true
Can't take my eyes off you

Bridge (Daa da, daa da)

Chorus
I love you baby, and if it's quite alright
I need you baby, to warm the lonely nights
I love you baby, trust in me when I say
Oh pretty baby, don't bring me down I pray
Oh pretty baby, now that I've found you stay
And let me love you, let me love you, oh baby
Suggest correction
Give kudos to tab author, rate the tab!
1 2 3 4 5
comments
print report bad tab
guest
You may want to rate the tab now too:
select rating
Wanna post a correction for this tab? Suggest correction