Oops, an error
Loading. Please wait.

Grease ukulele

version 1
version 1

Whole song

Interactive

746 views 15 this week
no commentswrite comment
1 2 3 4 5
1 last vote to show rating
add to favorites
×
Save as Personal and add changes to this tab that will be seen only by you. Learn more ›
×
You can save this tab as Personal to edit and correct it or add notes. All changes will be seen only by you. Learn more »
launch autoscroll
font size
0
reset
transpose
0
reset
simplify chords
display chords
guitar tuner
edit
Autoscroll
slow
fast
+/-
esc
set tempo
stop
Strumming
There is no strumming pattern for this song yet. and get +5 IQ
---------------------------------------------------------------------------
                Grease - Frankie Valli
---------------------------------------------------------------------------
Tabbed by: maguri
Tuning: Standard

Frankie Valli
Grease (1978)
(Barry Gibb)

From: "Grease – The Original Soundtrack from the Motion Picture"

The recording is somewhere between Bb and B. It's probably best transcribed 
in A and then you can put the capo 1st fret (= Bb) or 2nd fret (= B).

---------------------------------------------------------------------------
Capo 1st/2nd fret

INTRO part 2
  Am                                F                          G
  1 + 2 + 3 + 4 +  1 + 2 + 3 + 4 +  1 + 2 + 3 + 4 +  1 + 2 + 3 +   4 + 
e|----------------|----------------|----------------|------------------|
B|----------------|----------------|----------------|------------------|
G|----------------|7\5---5---------|----------------|---------7b9br7-5-|
D|5h7----5h7------|7\5(7)5---------|----------------|---------7b9br7---|
A|----------------|---(7)----------|----------------|------------------|
E|----------------|----------------|----------------|------------------|
  [clean guitar 1]                                      [slightly dist]
e|----3/5-----8\5-|----5---x5------|----------------|------------------|
B|----3/5-----8\5-|----5---x5------|----------------|------------------|
G|----------------|----5---x5------|----------------|------------------|
D|----------------|----------------|----------------|------------------|
A|----------------|----------------|----------------|------------------|
E|----------------|----------------|----------------|------------------|
  [clean guitar 2]


LICK
                   [VERSE]
  F         G      Am
  1 + 2 + 3 +   4 +  1 + 
e|------------------|----------------|
B|------------------|----------------|
G|---------7b9br7-5-|----------------|
D|---------7b9br7---|5-7-------------|
A|------------------|----------------|
E|------------------|----------------|

| B   bend
| br  bend release

---------------------------------------------------------------------------

Capo 1st/2nd fret

INTRO part 1 (brass lick)
| Am | % |[2/4] % | 
INTRO part 2 
| Am | % | F | F    G |
                  (LICK)


Am                            D       Am
 I solve my problems and I'll see the light
         D       Am              Em
We got a  lovin' thing, we gotta feed it right
Dm              C             Bb     Am
 There ain't no danger we can go too far
           D       Am              Em
We start believin' now that we can be who we are
              F        G
Grease is the word    (LICK)


Am                             D       Am
 They think our love is just a growin' pain
               D     Am                 Em
Why don't they  understand? It's just a cryin' shame
Dm              C           Bb      Am
 Their lips are lyin', only real is real
            D           Am             Em
We stop the fight right now, we got to be what we feel


              Am(7)
Grease is the word
              (Grease is the word, is the word that you heard)
         Dm7
It's got groove, it's got meaning
Am(7)
Grease is the time, is the place, is the motion
Dm7                      F               G
Grease is the way we are feeling        (LICK)


Am                            D      Am
 We take the pressure, and we throw away 
         D  Am              Em
Conventionality, belongs to yesterday
Dm          C                  Bb         Am
 There is a chance that we can make it so far
           D       Am              Em
We start believin' now that we can be who we are 


              Am(7)
Grease is the word
              (Grease is the word, is the word that you heard)
         Dm7
It's got groove, it's got meaning
Am(7)
Grease is the time, is the place, is the motion
Dm7                      F        G
Grease is the way we are feeling      


Dm(7)                  Em(7)               F
 This is a life of illusion, wrapped up in troubles,
            E                           Am
Laced in confusion, what are we doin' here?     (LICK)


Am                            D      Am
 We take the pressure, and we throw away 
         D  Am              Em
Conventionality, belongs to yesterday
Dm          C                  Bb         Am
 There is a chance that we can make it so far
           D       Am              Em
We start believin' now that we can be who we are 

              Am(7)
Grease is the word
              (Grease is the word, is the word that you heard)
         Dm7
It's got groove, it's got meaning
Am(7)
Grease is the time, is the place, is the motion
Dm7                      F          G
Grease is the way we are feeling      

| Am | % |[2/4] % | 
[Intro brass lick)
| Am | (no chord) | % | % |
[drums only]          (LICK)

Am(7)
Grease is the word, is the word that you heard
         Dm7
It's got groove, it's got meaning
Am(7)
Grease is the time, is the place, is the motion
Dm7                      F          G
Grease is the way we are feeling   (brass)

Am
Grease is the word, is the word, is the word ... (repeat and fade)

            
            
Suggest correction
Creating personal tab
Creating personal tab
You can edit any tab online and save it as your Personal.

You can edit, replace or remove any tab part or add personal notes – all changes will be seen only by you.

Personal tabs can be accessed anytime from any device, even offline.
Learn more »
Give kudos to tab author, rate the tab!
1 2 3 4 5
comments
print report bad tab
guest
Wanna post a correction for this tab? Suggest correction