Oops, an error
Loading. Please wait.

Sneakers Sneaky Thing Tab

202 views 12 this week
no commentswrite comment
1 2 3 4 5
3 more votes to show rating
add to favorites
launch autoscroll
font size
0
reset
how to read this tab
guitar tuner
Autoscroll
slow
fast
+/-
esc
set tempo
stop
Help us to improve Ultimate-Guitar.com Take our survey!
×
Author
Difficulty
novice
[Intro & Verse]
(just riff twice for only the intro, followed by both riff and chords 16 times for each verse)

Riff
e|---------------------------------------------------------------|
B|-------------------------------------------------------------3-|
G|---------4---------------4---------------4---------------2-----|
D|-5---5-------5---5---5-------5-0-----4-------4-------2---------|
A|---------------------------------5---------------3-------------|
E|---------------------------------------------------------------|
Chords
e|-3---3---3---3---3---3---3---3---2---2---2---3---0---0---0---0-|
B|-3---3---3---3---3---3---3---3---3---3---3---3---1---1---1---1-|
G|-0---0---0---0---0---0---0---0---2---2---2---2---0---0---0---0-|
D|-0---0---0---0---0---0---0---0---0---0---0---0---2---2---2---2-|
A|-2---2---2---2---2---2---2---2-------------------3---3---3---3-|
E|-3---3---3---3---3---3---3---3---------------------------------|

When the verses with singing are over this is an octave higher, but played in the same spot. A Digitech
Whammy Pedal is used for the effect, but it could just be played an octave higher.

[Chorus] 
(Both 10 times)
Riff
e|---------------------------------------------------------------|
B|-------------------------------------------------------------3-|
G|---------4---------------4---------------2---------------2-----|
D|-----4-------4-------4-------4-------2-------2-------2---------|
A|-5---------------5---------------3---------------3-------------|
E|---------------------------------------------------------------|
Chords
e|-2---2---2---3---2---2---2---2---0---0---0---0---0---0---0---0-|
B|-3---3---3---3---3---3---3---3---1---1---1---1---1---1---1---1-|
G|-2---2---2---2---2---2---2---2---0---0---0---0---0---0---0---0-|
D|-0---0---0---0---0---0---0---0---2---2---2---2---2---2---2---2-|
A|---------------------------------3---3---3---3---3---3---3---3-|
E|---------------------------------------------------------------|


[Solo]
The riff and chords are played during the solo, but the chords are louder than the verses. 
e|---------------------------------------------------------------|
B|-------------------------------------------------------------3-|
G|---------4---------------4---------------4---------------2-----|
D|-5---5-------5---5---5-------5-0-----4-------4-------2---------|
A|---------------------------------5---------------3-------------|
E|---------------------------------------------------------------|
Chords
e|-3---3---3---3---3---3---3---3---2---2---2---3---0---0---0---0-|
B|-3---3---3---3---3---3---3---3---3---3---3---3---1---1---1---1-|
G|-0---0---0---0---0---0---0---0---2---2---2---2---0---0---0---0-|
D|-0---0---0---0---0---0---0---0---0---0---0---0---2---2---2---2-|
A|-2---2---2---2---2---2---2---2-------------------3---3---3---3-|
E|-3---3---3---3---3---3---3---3---------------------------------| 
Suggest correction
Give kudos to tab author, rate the tab!
1 2 3 4 5
comments
print report bad tab
guest
You may want to rate the tab now too:
select rating
Wanna post a correction for this tab? Suggest correction