Oops, an error
Loading. Please wait.

The Bay tab

82 views 3 this week
2 commentsread comments
1 2 3 4 5
3 more votes to show rating
add to favorites
×
Save as Personal and add changes to this tab that will be seen only by you. Learn more ›
×
You can save this tab as Personal to edit and correct it or add notes. All changes will be seen only by you. Learn more »
launch autoscroll
font size
0
reset
how to read this tab
guitar tuner
edit
Autoscroll
slow
fast
+/-
esc
set tempo
stop
Link to song: https://www.youtube.com/watch?v=v5x3vv9yVPg

[Chords] 
(repeats through the entire song, 24 times)
  Amaj             C#maj            Emaj             Amaj
e|5-5-5-5-5-5-5-5-|4-4-4-4-4-4-4-4-|7-7-7-7-7-7-7-7-|5-5-5-5-5-5-5-5-|
B|5-5-5-5-5-5-5-5-|6-6-6-6-6-6-6-6-|9-9-9-9-9-9-9-9-|5-5-5-5-5-5-5-5-|
G|6-6-6-6-6-6-6-6-|6-6-6-6-6-6-6-6-|9-9-9-9-9-9-9-9-|6-6-6-6-6-6-6-6-|
D|7-7-7-7-7-7-7-7-|6-6-6-6-6-6-6-6-|9-9-9-9-9-9-9-9-|7-7-7-7-7-7-7-7-|
A|7-7-7-7-7-7-7-7-|4-4-4-4-4-4-4-4-|7-7-7-7-7-7-7-7-|7-7-7-7-7-7-7-7-|
E|5-5-5-5-5-5-5-5-|x-x-x-x-x-x-x-x-|x-x-x-x-x-x-x-x-|5-5-5-5-5-5-5-5-|

[Main riff] 
(repeats once during the intro and between verses, but plays 12 tims during the solo)
e|-9--------9--------|9--------9--------|12--------12--------|9--------9--------|
B|---9-10-9---9-10-9-|--9-10-9---9-10-9-|---9-10-9----9-10-9-|--9-10-9---9-10-9-|
G|-------------------|------------------|--------------------|------------------|
D|-------------------|------------------|--------------------|------------------|
A|-------------------|------------------|--------------------|------------------|
E|-------------------|------------------|--------------------|------------------|


************************************

| x  Dead note

************************************

            
            
Suggest correction
Creating personal tab
Creating personal tab
You can edit any tab online and save it as your Personal.

You can edit, replace or remove any tab part or add personal notes – all changes will be seen only by you.

Personal tabs can be accessed anytime from any device, even offline.
Learn more »
Give kudos to tab author, rate the tab!
1 2 3 4 5
comments
print report bad tab
2 comments total.
0 reply
mcantrell5 10 Aug 23, 2017 04:48 PM

This way is much easier and still correct

e 5 9 12 5
b 5 9 12 5
g 6 10 13 6
d 7 11 14 7
a 7 11 14 7
e 5 9 12 5

0 reply
BenadDeluxe 176 Aug 25, 2017 09:02 PM

I agree it is easier, but I play it both ways. I found it out this way first and it was easier to tab too. :)

guest
You may want to rate the tab now too:
select rating
Wanna post a correction for this tab? Suggest correction