Oops, an error
Loading. Please wait.

All For You Sophia Bass

972 views 1 this week
2 commentsread comments
1 2 3 4 5
2 more votes to show rating
add to favorites
launch autoscroll
font size
0
reset
guitar tuner
×
Best way to learn
"All For You Sophia"
Autoscroll
slow
fast
+/-
esc
set tempo
stop
All For You Sohpia
Bass
Standard Tuning

Tab by: Adrian Stone

Intro
G|---------------|
D|---------------|
A|---------------|
E|-10--10--3--3-5|

Verse
G|-----------------------------------------------|
D|-----------------------------------------------|
A|-----------------------------------------------|
E|-5--5--3--1--1--0--0--10--10/3--3--5--5--3--3--|

Chorus
G|-----0-----2-----3-----5/0|
D|-0-0---0-0---0-0---0-0----|
A|--------------------------|
E|--------------------------|

Verse
G|-----------------------------------------------|
D|-----------------------------------------------|
A|-----------------------------------------------|
E|-5--5--3--1--1--0--0--10--10/3--3--5--5--3--3--|

Chorus
G|-----0-----2-----3-----5/0|
D|-0-0---0-0---0-0---0-0----|
A|--------------------------|
E|--------------------------|

Bridge
G|------------------------------------------------|
D|------------------------------------------------|
A|------------------------------------------------|
E|-5--5--3--3--1--1--0--0--10--10/3--3--5--5--3--3|

Verse
G|-----------------------------------------------|
D|-----------------------------------------------|
A|-----------------------------------------------|
E|-5--5--3--1--1--0--0--10--10/3--3--5--5--3--3--|

Outro
G|----------------------------|
D|----------------------------|
A|----------------------------|
E|-5~~3~~1~~3~~5~~3~~1~~3~~5~~|
Suggest correction
Give kudos to tab author, rate the tab!
1 2 3 4 5
comments
print report bad tab
2 comments total.
0 reply
BJC2590 30 Mar 01, 2005 07:00 PM

the bridge is like this

G|---------------------------------------------|
D|---------------------------------------------|
A|---------------------------------------------|
E|--5-5--5-5--10-10--10-10--3-3--3-3--4-4--4-4-|

0 reply
mrpenguin93 70 Jul 07, 2005 08:00 PM

no the bridge is like this stupid

G|--------------------------------------------|
D|--------------------------------------------|
A|--------------------------------------------|
E|-5-5--5-5--10-10--10-10--1-1--1-1--3-3--3-3-|

guest
You may want to rate the tab now too:
select rating
Wanna post a correction for this tab? Suggest correction