Oops, an error
Loading. Please wait.

Auf Achse Bass

version 1
version 1

Whole song

Interactive

5,848 views 1 this week
3 commentsread comments
1 2 3 4 5
x 9
add to favorites
launch autoscroll
font size
0
reset
guitar tuner
×
Best way to learn
"Auf Achse"
Autoscroll
slow
fast
+/-
esc
set tempo
stop
Standard Tuning

This isn't one of my most thorough tabs.  I'm 99% sure it's right but I
can't be bothered to write it out in full.
Just listen to the tune and you'll get it in no time.

/ = slide up
r = let note ring

G|--------------------------------------------------------------------|
D|--------------------------------------------------------------------|
A|--------------------------------------------------------------------|
E|-5---------------8----------------10---------------13---------------| x2

G|--------------------------------------------------------------------|
D|---7---7---7---7/--10--10--10--10/--12--12--12--12/--15--15--15--15-|
A|--------------------------------------------------------------------|
E|-5---5---5---5---8---8---8---8----10--10--10--10---13--13--13--13---|
                                                 up to 1 min 34.5 secs

G|-------------------------------------|
D|-------------------------------------|
A|---------------5/10-10-10-10-8-8-8-8-|
E|-5-5-5-5-5-5-5-----------------------| x4

G|-------------------------------------------------|
D|-------------------------------------------------|
A|-------------------------------------------------|
E|-5-5-5-5-5-5-5-578-8-8-8-8-8-8-3-3-3-3-3-3-3-3-3-| x2

G|--------------------------------------------------------------------|
D|---7---7---7---7/--10--10--10--10/--12--12--12--12/--15--15--15--15-|
A|--------------------------------------------------------------------|
E|-5---5---5---5---8---8---8---8----10--10--10--10---13--13--13--13---|
                                                   up to 2 min 43 secs

G|-------------------------------------|
D|-------------------------------------|
A|---------------5/10-10-10-10-8-8-8-8-|
E|-5-5-5-5-5-5-5-----------------------| x4

G|-----------------------------|---------------------|
D|-----------------------------|---------------------|
A|-----------------------------|---------------------|
E|-5-5-5-5-6-6-6-6-10-10-10-10-|-6-6-6-6-10-10-10-10-| x3

G|-------------------------|
D|-------------------------|
A|-------------------------|
E|-6-6-6-6-1-1-1-1/5-5-5-5-|

G|--------------------------------------------------------------------|
D|---7---7---7---7/--10--10--10--10/--12--12--12--12/--15--15--15--15-|
A|--------------------------------------------------------------------|
E|-5---5---5---5---8---8---8---8----10--10--10--10---13--13--13--13---|
                                                   up to 3 min 52 secs

G|----------------------------------------------------------------------|
D|----------------------------------------------------------------------|
A|----------------------------------------------------------------------|
E|-5---------------8----------------10---------------13--------------5r-|
Suggest correction
comments
print report bad tab
3 comments total.
0 reply
kaz77777 31 Dec 05, 2007 12:44 AM

Good tab, but not perfect...

0 reply
Noble Cause 82 Aug 12, 2009 08:42 PM

the line for the verse is wrong

the octaves should be looked at more carefully, they seem to alternate more than standard 8th notes back and forth

+1 reply
Hurm 615 Mar 27, 2010 03:49 AM

Tab is okay, but indeed the verse part isn't 100% accurate. It's played different each time, but I think it comes close to this:

Verse
G|------------------------------------------------------|
D|--7--7-7--7-7--7-7-7\-10--10-10--10-10--1010-10-10/12-|
A|------------------------------------------------------|
E|-5----5----5----5-5--8------8------8--------8--8------|

G|------------------------------------------------------------------------|
D|---12-12--12--1212--12--1212--12—12/15--15--15--15--15--15--15--15--15\-|
A|------------------------------------------------------------------------|
E|-10-----10--------10--------10--10----13------13------13------13--13----|

guest
You may want to rate the tab now too:
select rating
Wanna post a correction for this tab? Suggest correction