Oops, an error
Loading. Please wait.

Auf Achse Tab

version 1
version 1

Intro

Whole song

Interactive

5,870 views 6 this week
7 commentsread comments
1 2 3 4 5
x 13
add to favorites
launch autoscroll
font size
0
reset
how to read this tab
guitar tuner
Autoscroll
slow
fast
+/-
esc
set tempo
stop
Help us to improve Ultimate-Guitar.com Take our survey!
×
Hey this Is for the Start of Auf Ache by Franz Ferdinand


e|-------------------------------------0-------------|
B|---1----0----------------1----0--------------------|
G|-----------2----------------------2----------------|
D|--------------2------------------------------------|
A|---0---------------------3-------------------------|
E|---------------------------------------------------|

e|-------------------------------------5--------------|
B|---6----5----------------6-----5--------------------|
G|-----------7----------------------7-----------------|
D|--------------7-------------------------------------|
A|---8---------------------5--------------------------|
E|----------------------------------------------------|

e|----------------------------------------------------|
B|---1----0----------------0--------------------------|
G|-----------2------------------2---------------------|
D|--------------2------------------0------------------|
A|---0---------------------3----------3---------------|
E|----------------------------------------------------|

e|-----------0--------------------0-------------------|
B|---3----1---------------3----1-------------2--------|
G|--------------2--------------------0----------------|
D|---0--------------------3---------------------------|
A|----------------------------------------------------|
E|----------------------------------------------------|


Enjoy
Suggest correction
comments
print report bad tab
7 comments total. Showing first comments.
0 reply
Felbi 10 Jun 04, 2005 12:00 AM

i think the last note is an "a"

e|-----------0--------------------0-------------------|
B|---3----1---------------3----1----------------------|
G|--------------2--------------------0-------2--------|
D|---0--------------------3---------------------------|
A|----------------------------------------------------|
E|----------------------------------------------------|

0 reply
Rivers 167 Jan 18, 2006 07:30 PM

the second time round it should be up an octave

+1 reply
McLellan 134 Oct 04, 2006 10:06 AM

Yeah, the last note is on the a string but still a really good tab anyway.

guest
You may want to rate the tab now too:
select rating
Wanna post a correction for this tab? Suggest correction