Oops, an error
Loading. Please wait.

Darts Of Pleasure tab

version 1
version 1

Whole song

Interactive

2,070 views 6 this week
no commentswrite comment
1 2 3 4 5
x 6
add to favorites
×
Save as Personal and add changes to this tab that will be seen only by you. Learn more ›
×
You can save this tab as Personal to edit and correct it or add notes. All changes will be seen only by you. Learn more »
launch autoscroll
font size
0
reset
how to read this tab
guitar tuner
edit
Autoscroll
slow
fast
+/-
esc
set tempo
stop
*-------------------------------------PLEASE NOTE-------------------------------------*
*-This file is the author's own work and represents their interpretation of the song.-*
*-------You may only use this file for private study, scholarship, or research.-------*
*-------------------------------------------------------------------------------------*

Released on September 8th 2003, "Darts of Pleasure" is the debut single by the
Glasgow indie-rock band, Franz Ferdinand, from their homonym first album.
It made its way to #44 UK Singles chart, and was widely acclaimed by the critics.
A catchy song with obscure and seductive lyrics and a very simple rhythmic line.

Tabbed by Pelusteriano
Contact at my UG profile
Lyrics by Alexander Kapranos & Nicholas McCarthy (official lyrics from album)
Music by Franz Ferdinand
Key of C major
===============================================================================
Chords (low to high, in order of appereance)
F#m 244222X  A X02220  E5 022XXX  F5 133XXX  E 022100  Em 022000  C5 X32010
Am X02210  B X2444X  G 355433

SYMBOLS
X, muted note   v, vibrato   b, bend   r, release
/ or \, slide up or down   ( ), hold/previous note


INTRO

bassline arr. for guitar
A|--------0-0--0-|----------------|
E|-2-2--2--------|-2-2--2-0-0-0-1-|


VERSE I
                                        ________________________________       ________________________
Gtr 1. Alex Kapranos                   |1.                                    |2.
    F#m                                                                           E
|| ---------------|--------------------|---------------|---------------- ||  |-0----------|------------|
|| -X-X-2--X-X-2--|-X-X-2--------------|-X-X-2--X-X-2--|-X-X-2---------- ||  |-0----------|------------|
||o-X-X-2--X-X-2--|-X-X-2--4b6-(6)r4-2-|-X-X-2--X-X-2--|-X-X-2--4-4-4-2-o||  |-1----------|------------|
||o-X-X-4--X-X-4--|-X-X-4--------------|-X-X-4--X-X-4--|-X-X-4----------o||  |-2----------|------------|
|| -X-X-4--X-X-4--|-X-X-4--------------|-X-X-4--X-X-4--|-X-X-4---------- ||  |-2----------|------------|
|| ---------------|--------------------|---------------|---------------- ||X2|-0----------|------------|
|
|Gtr 2. Nick McCarthy
|| ----------------|-------------------|---------------|---------------- ||  |------------|------------|
|| ----------------|-------------------|---------------|---------------- ||  |------------|------------|
||o----------------|-------------------|---------------|----------------o||  |------------|------------|
||o-4-4---4/7-7---7\4---2-2-3-3--------|-4-4---4/7-7--7\4---2-2-3-3-----o||  |------------|------------|
|| -4-4---4/7-7---7\4---2-2-3-3--------|-4-4---4/7-7--7\4---2-2-3-3----- ||  |------------|------------|
|| -2-2---2/5-5---5\2---0-0-1-1--------|-2-2---2/5-5--5\2---0-0-1-1----- ||x2|-0--4--5--6-|-7--5--4--0-|

F#m          A         F#m   E5-F5
 You are the latest contender
F#m          A        F#m   E5-F5
 You are the one to remember
F#m          A           F#m    E5-F5
 You are the villain who sends a
E
Line of dark, fantastic passion


VERSE II

  F#m                                                                   E                
   Em
|---------------|--------------------|---------------|----------------|-0----------|--------0-0-|-0----|
|-X-X-2--X-X-2--|-X-X-2--------------|-X-X-2--X-X-2--|-X-X-2----------|-0----------|--------0-0-|-0----|
|-X-X-2--X-X-2--|-X-X-2--4b6-(6)r4-2-|-X-X-2--X-X-2--|-X-X-2--4-4-4-2-|-1----------|--------0-0-|-0----|
|-X-X-4--X-X-4--|-X-X-4--------------|-X-X-4--X-X-4--|-X-X-4----------|-2----------|--------2-2-|-2----|
|-X-X-4--X-X-4--|-X-X-4--------------|-X-X-4--X-X-4--|-X-X-4----------|-2----------|--------2-2-|-2----|
|---------------|--------------------|---------------|----------------|-0----------|--------0-0-|-0----|
|
| F#5     A5      F#5 E5  F5           F#5     A5     F#5 E5  F5
|----------------|-------------------|---------------|----------------|------------|------------|------|
|----------------|-------------------|---------------|----------------|------------|------------|------|
|----------------|-------------------|---------------|----------------|------------|------------|------|
|-4-4---4/7-7---7\4---2-2-3-3--------|-4-4---4/7-7--7\4---2-2-3-3-----|------------|------------|------|
|-4-4---4/7-7---7\4---2-2-3-3--------|-4-4---4/7-7--7\4---2-2-3-3-----|------------|------------|------|
|-2-2---2/5-5---5\2---0-0-1-1--------|-2-2---2/5-5--5\2---0-0-1-1-----|-0--4--5--6-|-7--5--4--0-|------|

F#m          A          F#m     E5-F5
 I know that you will surrender
F#m          A          F#m     E5-F5
 I know that you will surrender
E
I want this fantastic passion
Em
Will have fantastic passion


CHORUS

  C5                                  E5
|-----------------|-----------------|-----------------|-----------------|
|-----------------|-----------------|-----------------|-----------------|
|-5-5-5-5-5-5-5-5-|-5-5-5-5-5-5-5-5-|-9-9-9-9-9-9-9-9-|-9-9-9-9-9-9-9-9-|
|-5-5-5-5-5-5-5-5-|-5-5-5-5-5-5-5-5-|-9-9-9-9-9-9-9-9-|-9-9-9-9-9-9-9-9-|
|-3-3-3-3-3-3-3-3-|-3-3-3-3-3-3-3-3-|-7-7-7-7-7-7-7-7-|-7-7-7-7-7-7-7-7-|
|-----------------|-----------------|-----------------|-----------------|
|
| 1/4 tone bends
|-----------------|-----------------|-----------------|-----------------|
|-5b--5b--5b--5b--|-5b--5b--3-------|-----------------|-----------------|
|-----------------|-------------5---|-4vv-------------|-----------0-----|
|-----------------|-----------------|------2-2-2---0--|-2---2-0-2-------|
|-----------------|-----------------|-----------------|-----------------|
|-----------------|-----------------|-----------------|-----------------|

  A5                                  E5
|-----------------|-----------------|-----------------|-----------------|
|-----------------|-----------------|-----------------|-----------------|
|-----------------|-----------------|-9-9-9-9-9-9-9-9-|-9-9-9-9-9-9-9-9-|
|-7-7-7-7-7-7-7-7-|-7-7-7-7-7-7-7-7-|-9-9-9-9-9-9-9-9-|-9-9-9-9-9-9-9-9-|
|-7-7-7-7-7-7-7-7-|-7-7-7-7-7-7-7-7-|-7-7-7-7-7-7-7-7-|-7-7-7-7-7-7-7-7-|
|-5-5-5-5-5-5-5-5-|-5-5-5-5-5-5-5-5-|-----------------|-----------------|
|
|
|-----------------|-----------------|-----------------|-----------------|
|---------1-------|-----------------|-----------------|-----------------|
|-2---2-----2-X-2vvv--2---2---X-----|-----------------|-----------0-----|
|-----------------|--------------4--|-5b6v-2-2-2---0--|-2---2-0-2-------|
|-----------------|-----------------|-----------------|-----------------|
|-----------------|-----------------|-----------------|-----------------|

C                                 Em
You can feel my lips undress your eyes
             Am                 Em
Undress your eyes, undress your eyes

  C5                                  E5
|-----------------|-----------------|-----------------|-----------------|
|-----------------|-----------------|-----------------|-----------------|
|-5-5-5-5-5-5-5-5-|-5-5-5-5-5-5-5-5-|-9-9-9-9-9-9-9-9-|-9-9-9-9-9-9-9-9-|
|-5-5-5-5-5-5-5-5-|-5-5-5-5-5-5-5-5-|-9-9-9-9-9-9-9-9-|-9-9-9-9-9-9-9-9-|
|-3-3-3-3-3-3-3-3-|-3-3-3-3-3-3-3-3-|-7-7-7-7-7-7-7-7-|-7-7-7-7-7-7-7-7-|
|-----------------|-----------------|-----------------|-----------------|
|
|
|-----------------|-----------------|-----------------|-----------------|
|-----------------|-----------------|-----------------|-----------------|
|-4---4-4-4-4-4-4-|-4-4-4-4---------|----------4------|---4------4------|
|-2---2-2-2-2-2-2-|-2-2-2-2---------|-2----2-2-4---2--|-2-4--2-2-4------|
|-----------------|---------5---3---|-2----2-2-2---2--|-2-2--2-2-2------|
|-----------------|-----------------|-0----0-0-----0--|-0----0-0----3b--|

C
Words of love and words so leisured
Em
Words are poisoned darts of pleasure

  B                                   E5                       A#5
|-----------------|-----------------|-----------------|----------------|
|-----------------|-----------------|-----------------|----------------|
|-8-8-8-8-8-8-8-8-|-8-8-8-8-8-8-8-8-|-9-9-9-9-9-9-9-9-|-9--------------|
|-9-9-9-9-9-9-9-9-|-9-9-9-9-9-9-9-9-|-9-9-9-9-9-9-9-9-|-9------8-8-8-0-|
|-9-9-9-9-9-9-9-9-|-9-9-9-9-9-9-9-9-|-7-7-7-7-7-7-7-7-|-7------8-8-8-0-|
|-7-7-7-7-7-7-7-7-|-7-7-7-7-7-7-7-7-|-----------------|--------6-6-6-0-|
|
|
|-----------------|-----------------|-----------------|----------------|
|-----------------|-----------------|-5-5-5-5-5-5-5-5-|-5------3-3-3-0-|
|-4-4-4-4-4-4-4-4-|-4-4-4-4-4-4-4-4-|-4-4-4-4-4-4-4-4-|-4------3-3-3-0-|
|-4-4-4-4-4-4-4-4-|-4-4-4-4-2-0-2-0-|-2-2-2-2-2-2-2-2-|-2------3-3-3-0-|
|-2-2-2-2-2-2-2-2-|-2-2-2-2---------|-----------------|----------------|
|-----------------|-----------------|-----------------|----------------|

B                   Em   A#5-E*
"Die"... and so you die


VERSE III

                                        ________________________________      ________________________
    F#m                                |1.                                   |2.E
|| ---------------|--------------------|---------------|---------------- ||  |-0----------|------------|
|| -X-X-2--X-X-2--|-X-X-2--------------|-X-X-2--X-X-2--|-X-X-2---------- ||  |-0----------|------------|
||o-X-X-2--X-X-2--|-X-X-2--4b6-(6)r4-2-|-X-X-2--X-X-2--|-X-X-2--4-4-4-2-o||  |-1----------|------------|
||o-X-X-4--X-X-4--|-X-X-4--------------|-X-X-4--X-X-4--|-X-X-4----------o||  |-2----------|------------|
|| -X-X-4--X-X-4--|-X-X-4--------------|-X-X-4--X-X-4--|-X-X-4---------- ||  |-2----------|------------|
|| ---------------|--------------------|---------------|---------------- ||X2|-0----------|------------|
|
|
|| ----------------|-------------------|---------------|---------------- ||  |------------|------------|
|| ----------------|-------------------|---------------|---------------- ||  |------------|------------|
||o----------------|-------------------|---------------|----------------o||  |------------|------------|
||o-4-4---4/7-7---7\4---2-2-3-3--------|-4-4---4/7-7--7\4---2-2-3-3-----o||  |------------|------------|
|| -4-4---4/7-7---7\4---2-2-3-3--------|-4-4---4/7-7--7\4---2-2-3-3----- ||  |------------|------------|
|| -2-2---2/5-5---5\2---0-0-1-1--------|-2-2---2/5-5--5\2---0-0-1-1----- ||x2|-0--4--5--6-|-7--5--4--0-|

F#m          A        F#m    E5-F5
 You are the latest adventure
F#m         A       F#m   E5-F5
 You're an emotion avenger
F#m          A          F#m    E5-F5
 You are the devil that sells a
E
Line of dark, fantastic passion


VERSE IV

  F#m                                                                   E                
   Em
|---------------|--------------------|---------------|----------------|-0----------|--------0-0-|-0----|
|-X-X-2--X-X-2--|-X-X-2--------------|-X-X-2--X-X-2--|-X-X-2----------|-0----------|--------0-0-|-0----|
|-X-X-2--X-X-2--|-X-X-2--4b6-(6)r4-2-|-X-X-2--X-X-2--|-X-X-2--4-4-4-2-|-1----------|--------0-0-|-0----|
|-X-X-4--X-X-4--|-X-X-4--------------|-X-X-4--X-X-4--|-X-X-4----------|-2----------|--------2-2-|-2----|
|-X-X-4--X-X-4--|-X-X-4--------------|-X-X-4--X-X-4--|-X-X-4----------|-2----------|--------2-2-|-2----|
|---------------|--------------------|---------------|----------------|-0----------|--------0-0-|-0----|
|
| F#5     A5      F#5 E5  F5           F#5     A5     F#5 E5  F5
|----------------|-------------------|---------------|----------------|------------|------------|------|
|----------------|-------------------|---------------|----------------|------------|------------|------|
|----------------|-------------------|---------------|----------------|------------|------------|------|
|-4-4---4/7-7---7\4---2-2-3-3--------|-4-4---4/7-7--7\4---2-2-3-3-----|------------|------------|------|
|-4-4---4/7-7---7\4---2-2-3-3--------|-4-4---4/7-7--7\4---2-2-3-3-----|------------|------------|------|
|-2-2---2/5-5---5\2---0-0-1-1--------|-2-2---2/5-5--5\2---0-0-1-1-----|-0--4--5--6-|-7--5--4--0-|------|

F#m          A          F#m     E5-F5
 I know that you will surrender
F#m          A          F#m     E5-F5
 I know that you will surrender
E
I want this fantastic passion
Em
Will have fantastic passion


CHORUS

  Palm Mute gtr 1
  C5                                  E5
|-----------------|-----------------|-----------------|-----------------|
|-----------------|-----------------|-----------------|-----------------|
|-----------------|-----------------|-----------------|-----------------|
|-5-5-5-5-5-5-5-5-|-5-5-5-5-5-5-5-5-|-9-9-9-9-9-9-9-9-|-9-9-9-9-9-9-9-9-|
|-3-3-3-3-3-3-3-3-|-3-3-3-3-3-3-3-3-|-7-7-7-7-7-7-7-7-|-7-7-7-7-7-7-7-7-|
|-----------------|-----------------|-----------------|-----------------|

  A5                                  E5
|-----------------|-----------------|-----------------|-----------------|
|-----------------|-----------------|-----------------|-----------------|
|-----------------|-----------------|-----------------|-----------------|
|-----------------|-----------------|-9-9-9-9-9-9-9-9-|-9-9-9-9-9-9-9-9-|
|-7-7-7-7-7-7-7-7-|-7-7-7-7-7-7-7-7-|-7-7-7-7-7-7-7-7-|-7-7-7-7-7-7-7-7-|
|-5-5-5-5-5-5-5-5-|-5-5-5-5-5-5-5-5-|-----------------|-----------------|

C                                 Em
You can feel my lips undress your eyes
             Am                 Em
Undress your eyes, undress your eyes

  C5                                  E5
|-----------------|-----------------|-----------------|-----------------|
|-----------------|-----------------|-----------------|-----------------|
|-5-5-5-5-5-5-5-5-|-5-5-5-5-5-5-5-5-|-9-9-9-9-9-9-9-9-|-9-9-9-9-9-9-9-9-|
|-5-5-5-5-5-5-5-5-|-5-5-5-5-5-5-5-5-|-9-9-9-9-9-9-9-9-|-9-9-9-9-9-9-9-9-|
|-3-3-3-3-3-3-3-3-|-3-3-3-3-3-3-3-3-|-7-7-7-7-7-7-7-7-|-7-7-7-7-7-7-7-7-|
|-----------------|-----------------|-----------------|-----------------|
|
| 1/4 tone bends
|-----------------|-----------------|-----------------|-----------------|
|-5b--5b--5b--5b--|-5b--5b--3-------|-----------------|-----------------|
|-----------------|-------------5---|-4vv-------------|-----------0-----|
|-----------------|-----------------|------2-2-2---0--|-2---2-0-2-------|
|-----------------|-----------------|-----------------|-----------------|
|-----------------|-----------------|-----------------|-----------------|

  A5                                  E5
|-----------------|-----------------|-----------------|-----------------|
|-----------------|-----------------|-----------------|-----------------|
|-----------------|-----------------|-----------------|-----------------|
|-----------------|-----------------|-9-9-9-9-9-9-9-9-|-9-9-9-9-9-9-9-9-|
|-7-7-7-7-7-7-7-7-|-7-7-7-7-7-7-7-7-|-7-7-7-7-7-7-7-7-|-7-7-7-7-7-7-7-7-|
|-5-5-5-5-5-5-5-5-|-5-5-5-5-5-5-5-5-|-----------------|-----------------|
|
|
|-----------------|-----------------|-----------------|-----------------|
|---------1-------|-----------------|-----------------|-----------------|
|-2---2-----2-X-2vvv--2---2---X-----|-----------------|-----------0-----|
|-----------------|--------------4--|-5b6v-2-2-2---0--|-2---2-0-2-------|
|-----------------|-----------------|-----------------|-----------------|
|-----------------|-----------------|-----------------|-----------------|

C                                  Em
Skin can feel my lips they tingle, tense anticipation
Am
This one is an easy one
Em
Feel the word and melt upon it

  C5                                  E5
|-----------------|-----------------|-----------------|-----------------|
|-----------------|-----------------|-----------------|-----------------|
|-----------------|-----------------|-----------------|-----------------|
|-5-5-5-5-5-5-5-5-|-5-5-5-5-5-5-5-5-|-9-9-9-9-9-9-9-9-|-9-9-9-9-9-9-9-9-|
|-3-3-3-3-3-3-3-3-|-3-3-3-3-3-3-3-3-|-7-7-7-7-7-7-7-7-|-7-7-7-7-7-7-7-7-|
|-----------------|-----------------|-----------------|-----------------|
|
|                                     E5       B5  E5     B5 E5  B5
|-----------------|-----------------|-----------------|-----------------|
|-----------------|-----------------|-----------------|-----------------|
|-4---4-4-4-4-4-4-|-4-4-4-4---------|----------4------|---4------4------|
|-2---2-2-2-2-2-2-|-2-2-2-2---------|-2----2-2-4---2--|-2-4--2-2-4------|
|-----------------|---------5---3---|-2----2-2-2---2--|-2-2--2-2-2------|
|-----------------|-----------------|-0----0-0-----0--|-0----0-0----3b--|

C
Words of love and words so leisured
Em
Words are poisoned darts of pleasure

  B                                   E5
|-----------------|-----------------|-----------------|----|
|-----------------|-----------------|-----------------|----|
|-8-8-8-8-8-8-8-8-|-8-8-8-8-8-8-8-8-|-9-9-9-9-9-9-9-9-|-9--|
|-9-9-9-9-9-9-9-9-|-9-9-9-9-9-9-9-9-|-9-9-9-9-9-9-9-9-|-9--|
|-9-9-9-9-9-9-9-9-|-9-9-9-9-9-9-9-9-|-7-7-7-7-7-7-7-7-|-7--|
|-7-7-7-7-7-7-7-7-|-7-7-7-7-7-7-7-7-|-----------------|----|
|
| B5                                  E5
|-----------------|-----------------|-----------------|----|
|-----------------|-----------------|-5-5-5-5-5-5-5-5-|-5--|
|-4-4-4-4-4-4-4-4-|-4-4-4-4-4-4-4-4-|-4-4-4-4-4-4-4-4-|-4--|
|-4-4-4-4-4-4-4-4-|-4-4-4-4-2-0-2-0-|-2-2-2-2-2-2-2-2-|-2--|
|-2-2-2-2-2-2-2-2-|-2-2-2-2---------|-----------------|----|
|-----------------|-----------------|-----------------|----|

B           Em
"Die", so I die


BASS INTERLUDE
(you can play G  E  G  E... through)


OUTRO (both guitars)

    G                E                  G                E
|| -3--3--3--3-----|------------------|-3--3--3--3-----|------------------|
|| -3--3--3--3-X-X-|-5-5-5--5--5--X-X-|-3--3--3--3-X-X-|-5-5-5--5--5--X-X-|
||o-4--4--4--4-X-X-|-4-4-4--4--4--X-X-|-4--4--4--4-X-X-|-4-4-4--4--4--X-X-|
||o-5--5--5--5-X-X-|-2-2-0--2--2--X-X-|-5--5--5--5-X-X-|-2-2-0--2--2--X-X-|
|| -5--5--5--5-X-X-|--------------X-X-|-5--5--5--5-X-X-|--------------X-X-|
|| -3--3--3--3-----|------------------|-3--3--3--3-----|------------------|

                                 __________________________________       ____________________
                                |1,2.                                    |3.
  G                A                (slow bend, pick while bending)       E
|-3--3--3--3-----|-------------|-----------------|----------------- ||  |-0000000000000000-0--|
|-3--3--3--3-X-X-|-5--5--5--5--|---8--10b12(12)12-12-12-12r10-8---- ||  |-0000000000000000-0--|
|-4--4--4--4-X-X-|-6--6--6--6--|-9---------------|--------------9--o||  |-1111111111111111-1--|
|-5--5--5--5-X-X-|-7--7--7--7--|-----------------|-----------------o||  |-2222222222222222-2--|
|-5--5--5--5-X-X-|-7--7--7--7--|-----------------|----------------- ||  |-2222222222222222-2--|
|-3--3--3--3-----|-5--5--5--5--|-----------------|----------------- ||X3|-0000000000000000-0--|
|
|                                E5
|-3--3--3--3-----|-------------|-----------------|----------------- ||  |---------------------|
|-3--3--3--3-X-X-|-5--5--5--5--|-5-5-5-5-5-5-5-5-|----------------- ||  |-5555555555555555-5--|
|-4--4--4--4-X-X-|-6--6--6--6--|-4-4-4-4-4-4-4-4-|-----------------o||  |-4444444444444444-4--|
|-5--5--5--5-X-X-|-7--7--7--7--|-2-2-2-2-2-2-2-2-|-----------------o||  |-2222222222222222-2--|
|-5--5--5--5-X-X-|-7--7--7--7--|-----------------|----------------- ||  |---------------------|
|-3--3--3--3-----|-5--5--5--5--|-----------------|----------------- ||x3|---------------------|


G          E
Ich heisse superfantastische
G          E
Ich trinke Champers mit lachsfisch
G          A          E
Ich heisse superfantastische

G          E
Ich heisse superfantastische
G          E
Ich trinke Champers mit lachsfisch
G          A          E
Ich heisse superfantastische

G          E
Ich heisse superfantastische
G          E
Ich trinke Champers mit lachsfisch
G          A          E
Ich heisse superfantastische


***************************************************************************************
                    Did you like this tab? Leave a comment or rate!
            Noticed anything wrong? Let me know to fix it. Keep on rocking!
***************************************************************************************

            
            
Suggest correction
Creating personal tab
Creating personal tab
You can edit any tab online and save it as your Personal.

You can edit, replace or remove any tab part or add personal notes – all changes will be seen only by you.

Personal tabs can be accessed anytime from any device, even offline.
Learn more »
comments
print report bad tab
guest
You may want to rate the tab now too:
select rating
Wanna post a correction for this tab? Suggest correction