Oops, an error
Loading. Please wait.

Demagogue Tab

35 views 1 this week
no commentswrite comment
1 2 3 4 5
2 more votes to show rating
add to favorites
launch autoscroll
font size
0
reset
how to read this tab
guitar tuner
Autoscroll
slow
fast
+/-
esc
set tempo
stop
Help us to improve Ultimate-Guitar.com Take our survey!
×
Author
Difficulty
novice
[Intro]

Guitar 1:

e|--7--7-----7-7-----5-5-----5-5---5--|
B|--8--8-----8-8-----7-7-----5-5---5--|
G|--9--9-----9-9-----7-7-----6-6---6--| x2
D|--9--9-----9-9-----7-7-----7-7---7--|
A|--7--7-----7-7-----5-5-----7-7---7--|
E|---------------------------5-5---5--|

Then, as guitar 1 goes on, enters...

Guitar 2:

e|-----------------------------------|
B|-----------------------------------|
G|-----------------------------------|
D|-----------------------------------|
A|-----------------------------------|
E|--0--0-----0-0-----2-2--3-3-5-5/7--|


[Verse]

Guitar 1:

e|--7--7-----7-7-----5-5-----5-5---5--|
B|--8--8-----8-8-----7-7-----5-5---5--|
G|--9--9-----9-9-----7-7-----6-6---6--|
D|--9--9-----9-9-----7-7-----7-7---7--|
A|--7--7-----7-7-----5-5-----7-7---7--|
E|---------------------------5-5---5--|

Guitar 2:

e|-----------------------------------|
B|-----------------------------------|
G|-----------------------------------|
D|-----------------------------------|
A|-----------------------------------|
E|--0--0-----0-0-----2-2--3-3-5-5/7--|

[Chorus]

Not really a chorus but I don't know how to call that part:

(0:40) From the Wall straight to La Cuenta, those pussy grabbing fingers won't let go of me now
(1:23) From the Mob to chapter eleven,      those tiny vulgar fingers on the nuclear bomb 

e|--3-3-3-3-3-3-3-3-|
B|--3-3-3-3-3-3-3-3-|
G|--4-4-4-4-4-4-4-4-| keep strumming
D|--5-5-5-5-5-5-5-5-|
A|--5-5-5-5-5-5-5-5-|
E|--3-3-3-3-3-3-3-3-|


 'Demagogue' (x2)
e|-----------------------------------|
B|-----------------------------------|
G|-----------------------------------|
D|-----------------------------------|
A|-----------------------------------|
E|-----------0-0-----2-2--3-3-5-5/7--|

e|-----------7-7-----5-5-----5-5---5--|
B|-----------8-8-----7-7-----5-5---5--|
G|-----------9-9-----7-7-----6-6---6--| 
D|-----------9-9-----7-7-----7-7---7--|
A|-----------7-7-----5-5-----7-7---7--|
E|---------------------------5-5---5--|

"Piano Solo"
NB: After the second chorus, only the first part of the following is played.
e|-------------------------------------------------|
B|---8-7-8-7-8-7-----------------------------------|
G|---------------9-7---7-9~------9-7~--------------|
D|-------------------9--------------------9-7------|
A|--------------------------------------------7~---|
E|-------------------------------------------------|


[Outro]

These normally are piano chords but you can play them like this:

      What's a mother and father got to do with making me?
   Em                         D                          Bm
e|-7--------------------------5-------5--7---------------7--|
B|-8--------------------------7-------7--7---------------7--|
G|-9--------------------------7-------7--7---------------7--|
D|-9--------------------------7-------7--7---------------9--|
A|-7--------------------------5-------5--5---------------9--|
E|-------------------------------------------------------7--|
     
      What's a mother and father got to do with making me?
                              D                          Em
e|----------------------------5-------5--5---------------7--|
B|----------------------------7-------7--7---------------8--|
G|----------------------------7-------7--7---------------9--|
D|----------------------------7-------7--7---------------9--|
A|----------------------------5-------5--5---------------7--|
E|----------------------------------------------------------|

Song structure:

Intro
Verse
Chorus
'Demagogue' part + piano solo
Verse
Chorus
'Demagogue' part + shortened piano solo
Outro

************************************

| /   Slide up
| ~   Vibrato

************************************
Suggest correction
Give kudos to tab author, rate the tab!
1 2 3 4 5
comments
print report bad tab
guest
You may want to rate the tab now too:
select rating
Wanna post a correction for this tab? Suggest correction