Oops, an error
Loading. Please wait.

Doing Fine tab

22 views 3 this week
no commentswrite comment
1 2 3 4 5
3 more votes to show rating
add to favorites
×
Save as Personal and add changes to this tab that will be seen only by you. Learn more ›
×
You can save this tab as Personal to edit and correct it or add notes. All changes will be seen only by you. Learn more »
launch autoscroll
font size
0
reset
how to read this tab
guitar tuner
edit
Autoscroll
slow
fast
+/-
esc
set tempo
stop
About this tab version
Includes Bass and both guitars of the instrumental 'Doing Fine'. Was this info helpful? Yes No
Franz Ferdinand - Unreleased - Doing Fine
Standard E tuning, no capo required
Tabbed by Yaidin
Youtube link: https://www.youtube.com/watch?v=a-caTz_x0C8

Important:
Guitar 1 and bass are tabbed, and guitar 2 has the chords above it.


[Intro/Chorus/Verse 1] Bass 0:00
e|----------------------------|
B|----------------------------|
G|----------------------------|
D|----------------------------| (x16)
A|----------------4-4-4-------|
E|-1--1-1-1-3-4---------4--6--|

[Filler] Guitar 1 0:08
e|--13---|
B|-------|
G|-------|
D|-------|
A|-------|
E|-------|

[Chorus 1] Guitar 1&2 0:17
   F               A#
e|-----------------------------------|
B|---1-1-1-1-------3-3-3-5-3---------|
G|-3---------3-1-3-----------1-1h3---|
D|-----------------------------------| (x4)
A|-----------------------------------|
E|-----------------------------------|

[Filler] Guitar 1&2 At 0:39, 0:43, 0:48 and 0:52
    A#   G#
e|-----------|
B|-----------|
G|-----------|
D|--4/6--4---| (x4)
A|-----------|
E|-----------|

[Bridge 1] Guitar 1&2 0:53 (Bass plays the tabs like guitar 1)
    D#       C#       C#      D#      A#       F        G#      A#  Cm   (F)
e|---------------------------------|------------------------------------------|
B|---------------------------------|------------------------------------------|
G|---------------------------------|------------------------------------------|
D|---------------------------------|------------------------------------------|
A|--6-4-3-1--4-3-1----4-3-1--------|-----------1-3-4-6----------1-3-4-6--(8)--|
E|-----------------4--------4-/-6--|--4-6-8-9-----------4-6-8-9---------------|

[Chorus 2] Guitar 1&2 1:10 (Same as before, but i rather play it like this)
    F               A#
e|------------------------------------|
B|------------------------------------|
G|------------------------------------|
D|----6-6-6-6-------8-8-8-10-8--------| (x4)
A|--8---------8-6-8------------6-6h8--|
E|------------------------------------|

[Chorus/Verse 2] Bass 1:10
e|----------------------------|
B|----------------------------|
G|----------------------------|
D|----------------------------| (x8)
A|----------------4-4-4-------|
E|-1--1-1-1-3-4---------4--6--|

[Filler] Guitar 1&2
    A#   G#
e|-----------|
B|-----------|
G|-----------|
D|--4/6--4---| x4
A|-----------|
E|-----------|

[Bridge 2] Guitar 1&2 1:46 (Bass plays the tabs like guitar 1)
    D#       C#       C#      D#      A#       F        G#      A#  Cm   (F)
e|---------------------------------|------------------------------------------|
B|---------------------------------|------------------------------------------|
G|---------------------------------|------------------------------------------|
D|---------------------------------|------------------------------------------|
A|--6-4-3-1--4-3-1----4-3-1--------|-----------1-3-4-6----------1-3-4-6--(8)--|
E|-----------------4--------4-/-6--|--4-6-8-9-----------4-6-8-9---------------|

[Chorus/Verse 3] Bass 2:06
e|----------------------------|
B|----------------------------|
G|----------------------------|
D|----------------------------| (x4)
A|----------------4-4-4-------|
E|-1--1-1-1-3-4---------4--6--|

[Filler] Guitar 1&2
    D#7
e|--3--x-x-x-x-x-x-x-x--|
B|--2--x-x-x-x-x-x-x-x--|
G|--3--x-x-x-x-x-x-x-x--|
D|----------------------| (x4)
A|----------------------|
E|----------------------|

[Bridge 3] Guitar 1&2 1:46 (Bass plays the tabs like guitar 1)
    D#       C#       C#      D#      A#       F        G#      A#  Cm   (F)
e|---------------------------------|-------------------------------------|
B|---------------------------------|-------------------------------------|
G|---------------------------------|-------------------------------------|
D|---------------------------------|-------------------------------------| (x2)(Keep repeating the 2nd part at
A|--6-4-3-1--4-3-1----4-3-1--------|-----------1-3-4-6----------1-3-4-6--|     the second time playing, then
E|-----------------4--------4-/-6--|--4-6-8-9-----------4-6-8-9----------|     end with a F chord)


************************************

| h    Hammer-on
| /    Slide up
| (n)  Ghost note
| x    Dead note

************************************

            
            
Suggest correction
Creating personal tab
Creating personal tab
You can edit any tab online and save it as your Personal.

You can edit, replace or remove any tab part or add personal notes – all changes will be seen only by you.

Personal tabs can be accessed anytime from any device, even offline.
Learn more »
Give kudos to tab author, rate the tab!
1 2 3 4 5
comments
print report bad tab
guest
You may want to rate the tab now too:
select rating
Wanna post a correction for this tab? Suggest correction