Oops, an error
Loading. Please wait.

Dont Start chords

13 views 3 this week
no commentswrite comment
1 2 3 4 5
3 more votes to show rating
add to favorites
×
Save as Personal and add changes to this tab that will be seen only by you. Learn more ›
×
You can save this tab as Personal to edit and correct it or add notes. All changes will be seen only by you. Learn more »
launch autoscroll
font size
0
reset
transpose
0
reset
simplify chords
display chords
guitar tuner
edit
Autoscroll
slow
fast
+/-
esc
set tempo
stop
About this tab version
Includes both Chords and tabs. Only tabs where it's needed. Both guitars included. Was this info helpful? Yes No
Strumming
There is no strumming pattern for this song yet. and get +5 IQ
Franz Ferdinand - Single: Michael - Don't Start
Standard E tuning, no capo required
Tabbed by Yaidin


[Verse 1] Guitar 1
G#
There's only wind and dust to follow
G#
Your footsteps on the run
G#
You know me, know when I'm without you
G#
I swear my heart burns in the sun

[Verse 1] Guitar 2
e|-----------------------------------------------------|----------------------------------------------|
B|--------9-------11-------13-------11-------13p11-10--|--------9-------11-------13-------11----9h11--|
G|-----------------------------------------------------|----------------------------------------------|
D|-----10------10-------10-------10-------10-----------|-----10------10-------10-------10----10-------| x4
A|--11------11-------11-------11-------11--------------|--11------11-------11-------11----------------|
E|-----------------------------------------------------|----------------------------------------------|

[Chorus] Guitar 1/2
        D#5         C5          F#5
  Baby, don't start walking away
       G#5
  Stop walking away
D#5    C5      C5         G#5
  Stop coming around and around again
  D#5         C5          F#5
  Don't start walking away
       G#5
  Stop walking away
D#5    C5      C5        G#5
  Stop coming around and around again
    D#5        C5        F#5      G#5
    D#5        C5        C5       G#5
e|--------------------------------4/7-6-4--|
B|-----------------------------------------|
G|--8--8-8-8-8-5-5--5-5--------------------|
D|--8--8-8-8-8-5-5--5-5--4-4--4-4----------| x4 (Only Guitar 2, guitar one plays the chords shown above)
A|--6--6-6-6-6-3-3--3-3--4-4--4-4----------|
E|-----------------------2-2--2-2----------|

[Verse 2] Guitar 1
G#
I see you in your glasses clearly
G#
Your shades are blinding me, I say
G#
I miss you most when you are with me
G#
I miss your missing me each day

[Verse 2] Guitar 2

e|-----------------------------------------------------|----------------------------------------------|
B|--------9-------11-------13-------11-------13p11-10--|--------9-------11-------13-------11----9h11--|
G|-----------------------------------------------------|----------------------------------------------|
D|-----10------10-------10-------10-------10-----------|-----10------10-------10-------10----10-------| x4
A|--11------11-------11-------11-------11--------------|--11------11-------11-------11----------------|
E|-----------------------------------------------------|----------------------------------------------|

[Chorus Guitar 1/2]
        D#5         C5          F#5
  Baby, don't start walking away
       G#5
  Stop walking away
D#5    C5      C5         G#5
  Stop coming around and around again
  D#5         C5          F#5
  Don't start walking away
       G#5
  Stop walking away
D#5    C5      C5        G5
  Stop coming around and around again

        D#5         C5          F#5
  Baby, don't start walking away
       G#5
  Stop walking away
D#5    C5      C5         G#5
  Stop coming around and around again
  D#5         C5          F#5
  Don't start walking away
       G#5
  Stop walking away
D#5    C5      C5        G5
  Stop coming around and around again
    D#5        C5        F#5      G#5
    D#5        C5        C5       G#5
e|--------------------------------4/7-6-4--|
B|-----------------------------------------|
G|--8--8-8-8-8-5-5--5-5--------------------|
D|--8--8-8-8-8-5-5--5-5--4-4--4-4----------| x4 (Only Guitar 2, guitar one plays the chords shown above)
A|--6--6-6-6-6-3-3--3-3--4-4--4-4----------|
E|-----------------------2-2--2-2----------|

            
            
Suggest correction
Creating personal tab
Creating personal tab
You can edit any tab online and save it as your Personal.

You can edit, replace or remove any tab part or add personal notes – all changes will be seen only by you.

Personal tabs can be accessed anytime from any device, even offline.
Learn more »
Give kudos to tab author, rate the tab!
1 2 3 4 5
comments
print report bad tab
guest
You may want to rate the tab now too:
select rating
Wanna post a correction for this tab? Suggest correction