Oops, an error
Loading. Please wait.

Eleanor Put Your Boots On solo tab

version 1
version 1

Solo

Whole song

Interactive

3,291 views 1 this week
2 commentsread comments
1 2 3 4 5
1 last vote to show rating
add to favorites
×
Save as Personal and add changes to this tab that will be seen only by you. Learn more ›
×
You can save this tab as Personal to edit and correct it or add notes. All changes will be seen only by you. Learn more »
launch autoscroll
font size
0
reset
how to read this tab
guitar tuner
edit
Autoscroll
slow
fast
+/-
esc
set tempo
stop
Author
Difficulty
hiya people. THIS IS THE INSTRUMENTAL BREAK BIT IN THE SONG!HOPE YOU LIKE IT!
Tuning:Standard(E,B,G,D,A,E)
Tabbed by butty
E-mail-carpetiles@hotmail.com

E|12-12-10-8-10-6-3-5-6-12-12-10-8-10-6-3-5-6-12-12-10-8-------------------|
B|-------------------------------------------------------12-12-10-8--------|
G|-------------------------------------------------------------------14-14-|
D|-------------------------------------------------------------------------|
A|-------------------------------------------------------------------------|
E|-------------------------------------------------------------------------|

E|-------------------|
B|-----12-12-10-8-10-|
G|12-11--------------|
D|-------------------|
A|-------------------|
E|-------------------|

then the second instrumental break ending is the same as the big top bit untilthe little 
so DONT PLAY THE LITTLE BIT, PLAY...

E|-------------------|
B|------12-12-10-8-7-|
G|12-11--------------|
D|-------------------|
A|-------------------|
E|-------------------|

Ta da.Easy as pie.

            
            
Suggest correction
Creating personal tab
Creating personal tab
You can edit any tab online and save it as your Personal.

You can edit, replace or remove any tab part or add personal notes – all changes will be seen only by you.

Personal tabs can be accessed anytime from any device, even offline.
Learn more »
Give kudos to tab author, rate the tab!
1 2 3 4 5
comments
print report bad tab
2 comments total.
0 reply
idpod 10 Nov 08, 2006 07:04 PM

hey, this sounds pretty good!

0 reply
Naopelu 661 Dec 25, 2010 09:48 PM

Hi Butty 123! Your tab sounds pretty well but...
Let me suggest something: transpose your notes to other strings, like this:

|-12-12-10----10------------|
|----------13----11---10-11-|
|-------------------12------|
|---------------------------|
|---------------------------|
|---------------------------|

Sometimes is akward playing in just one string...

That's all.
^^)/

guest
You may want to rate the tab now too:
select rating
Wanna post a correction for this tab? Suggest correction