Oops, an error
Loading. Please wait.

Evil Eye bass

version 1
version 1

Whole song

Interactive

9,685 views 24 this week
5 commentsread comments
1 2 3 4 5
x 8
add to favorites
×
Save as Personal and add changes to this tab that will be seen only by you. Learn more ›
×
You can save this tab as Personal to edit and correct it or add notes. All changes will be seen only by you. Learn more »
launch autoscroll
font size
0
reset
guitar tuner
edit
Autoscroll
slow
fast
+/-
esc
set tempo
stop
Author
Difficulty
INTRO
 1  +  2  +  3  +  4  +  1  +  2  +  3  +  4  + 
|-----------------------|-----------------------|
|----------------------0h3--3---0h3--4-----\----| 
|2-----2-----2----------|-----------------------| REPEAT X1
|-----------------------|-----------------------| 



Verse 1
 1  +  2  +  3  +  4  +  1  +  2  +  3  +  4  + 
|-----------------------|-----------------------|
|----------------------0h3--3---0h3--4-----\----| 
|2-----2-----2----------|-----------------------| REPEAT X3
|-----------------------|-----------------------| 



Chorus
 1  +  2  +  3  +  4  +  1  +  2  +  3  +  4  + 
|-----------------------|-----------------------|
|------------4----------|5--------5--4----------| 
|------4--5-----5--2----|------5-----------5--4-|
|-----------------------|-----------------------| 


 1  +  2  +  3  +  4  +  1  +  2  +  3  +  4  + 
|-----------------------|-----------------------|
|------------4----------|5--5-----5--4--4-------| 
|2-----4--5-----5--2----|------5-----------5--4-| REPEAT LAST 4 X1
|-----------------------|-----------------------| 


 
Break
 1  +  2  +  3  +  4  +  1  +  2  +  3  +  4  + 
|-----------------------|-----------------------|
|----------------------0h3--3--0h3--4------\----| 
|2-----2-----2----------|-----------------------| REPEAT X1
|-----------------------|-----------------------| 



Verse 2
 1  +  2  +  3  +  4  +  1  +  2  +  3  +  4  + 
|-----------------------|-----------------------|
|----------------------0h3--3---0h3--4-----\----| 
|2-----2-----2----------|-----------------------| REPEAT X7
|-----------------------|-----------------------| 



Chorus 
 1  +  2  +  3  +  4  +  1  +  2  +  3  +  4  + 
|-----------------------|-----------------------|
|------------4----------|5--------5--4----------| 
|2-----4--5-----5--2----|------5-----------5--4-|
|-----------------------|-----------------------| 


 1  +  2  +  3  +  4  +  1  +  2  +  3  +  4  + 
|-----------------------|-----------------------|
|------------4----------|5--5-----5--4--4-------| 
|2-----4--5-----5--2----|------5-----------5--4-| Repeat last 4 X1
|-----------------------|-----------------------| 

Slows down slightly

Bridge
 1  + 2  + 3  + 4  + 1  + 2  + 3  + 4  + 
|-------------------|-------------------|
|2--222--222--222--222--222--222--222--22 
|------------- -----|-------------------| Repeat X2
|-------------------|-------------------| 


 1  + 2  + 3  + 4  + 1  + 2  + 3  + 4  + 
|-------------------|-------------------|
|2--222--222--222-222-------------------| 
|------------- -----|-------------------| 
|-------------------|-------------------| 



Chorus 
 1  +  2  +  3  +  4  +  1  +  2  +  3  +  4  + 
|-----------------------|-----------------------|
|------------4----------|5--------5--4----------| 
|2-----4--5-----5--2----|------5-----------5--4-|
|-----------------------|-----------------------| 


 1  +  2  +  3  +  4  +  1  +  2  +  3  +  4  + 
|-----------------------|-----------------------|
|------------4----------|5--5-----5--4--4-------| 
|2-----4--5-----5--2----|------5-----------5--4-| REPEAT LAST 4 X2
|-----------------------|-----------------------| 


 1  +  2  +  3  +  4  + 
|-----------------------|
|-----------------------| 
|2----------------------| 
|-----------------------| 

            
            
Suggest correction
Creating personal tab
Creating personal tab
You can edit any tab online and save it as your Personal.

You can edit, replace or remove any tab part or add personal notes – all changes will be seen only by you.

Personal tabs can be accessed anytime from any device, even offline.
Learn more »
comments
print report bad tab
5 comments total. Showing first comments.
0 reply
Hankgust7 10 Sep 28, 2013 10:52 AM

Very good, feels like there is something off but i can place it.

0 reply
HAFTX 105 Jan 21, 2014 07:36 AM, edited at 12:44 pm

The verse should beG|----------------|----------------|D|----------------|----------------|A|----------------|---8-8--x-8-9\--|E|7---7---7-------|7---------------|I also like to play the chorus on the E and A snares, same notes but sounds a bit fuller.

0 reply
HAFTX 105 Jan 21, 2014 07:45 AM

The verse should be
G|----------------|----------------|
D|----------------|----------------|
A|----------------|---8-8--x-8-9\--|
E|7---7---7-------|7---------------|

I also like to play the bridge and chorus on the E and A snares, same notes but sounds a bit fuller.

guest
You may want to rate the tab now too:
select rating
Wanna post a correction for this tab? Suggest correction