Oops, an error
Loading. Please wait.

Hallam Foe Dandelion Blow tab

7 views 1 this week
no commentswrite comment
1 2 3 4 5
3 more votes to show rating
add to favorites
×
Save as Personal and add changes to this tab that will be seen only by you. Learn more ›
×
You can save this tab as Personal to edit and correct it or add notes. All changes will be seen only by you. Learn more »
launch autoscroll
font size
0
reset
how to read this tab
guitar tuner
edit
Autoscroll
slow
fast
+/-
esc
set tempo
stop
About this tab version
Includes both guitars of the song Hallam Foe Dandelion Blow. Was this info helpful? Yes No
IMPORTANT: Tabs are timed with the chords, and the chords are timed with the lyrics, but the tabs are NOT
           timed with the lyrics!

[Intro]
 (F)     C              Gm      E      Am      A#              F         Gm     C
e|----------------------------------------------------------------------------------|
B|----------------------------------------------------------------------------------|
G|----------------------------------------------------------------------------------|
D|----------0--2-3-2--0-------0-2-0-------------------------------------------------|
A|--0--2-3--------------2---3--------3-0-----------------0--3-----------------------|
E|-----------------------------------------0---1-------3-------1-----1---3----1-0---|

[Verse (Tabs are technically not guitar here)]
    "Breeze blows from treetops to tease sensation ,  wonder in your imagination"
    (C)                Gm          E         A        A#                   F
e|---------------------------------------------------------------------------------|
B|---------------------------------------------------------------------------------|
G|--(5)--------------------------------------2--------3----------------------------|
D|---------------------5-----------2---------------------------------------3-------|
A|---------------------------------------------------------------------------------|
E|-------------------------------------------------------------------------1-------|

 "Wondering where she could be"
            Gm              C
e|-------------------------------|
B|-------------------------------|
G|-------------------------------|
D|-3--------5--------------------|
A|-------------------------------|
E|-1--------3-----1----0----1----|

(Intro again)
 "It feels   so  cold as you go when you leave , you're a dandelion blown on the breeze"
    (C)          Gm          E           Am               A#        Gm             F
e|---------------------------------------------------------------------------------------|
B|---------------------------------------------------------------------------------------|
G|---------------------------------------------------------------------------------------|
D|-----0-2-3-2-0----------0--2--0--------------------------------------------------------|
A|---3-----------2----3--------------3---0--------------------------------0--3-----------|
E|----------------------------------------------0---------1---------3--------------1-----|

 "Wondering where you could be"
            Gm              C
e|------------------------------|
B|------------------------------|
G|------------------------------|
D|------------------------------|
A|------------------------------|
E|--1-------3-----1---0-----1---|

[Bridge]
 "The whispers the window , she whispers and into the air we fly"
      Dm                        E                     Am     Em    C
e|---------------------------------------------------------------------|
B|---------------------------------------------------------------------|
G|---------------------------------------------------------------------|
D|---------------------------------------------------------------------|
A|----5-----------------------5\2-------------------2--0---0-2---2-3---|
E|---------------------------------------------------------------------|

    "So fly                 oh dandelion fly,           yes it's time             , it's time for you to..."
        Dm               E               Am   Em   C             Dm               E                      
e|-------------------------------------------------------------------------------------|
B|-------------------------------------------------------------------------------------|
B|-------------------------------------------------------------------------------------| 
D|---------14--14-12------------------------------------------------14--14-12----------|
A|-3/7--5-----------------------------2--0--0-2--2-3--3/7-----7--5---------------------|
E|---------12--12-10--12\7------------------------------------------12--12-10---12/7---|

  "Fly..."              
   Am       C       F#m     F       Am      C       F#m     F      E
e|-----------------------------------------------------------------5--4--5--4--|
B|-----------------------------------------------------------------------------|
G|-----------------------------------------------------------------------------|
D|-----------------------------------------------------------------------------|
A|----------------------------3h5p3--------------------------------------------|
E|--5---5-8-3---3-5-2---2-5-1-------5---5-8-3---3-5-2---2-5-1---1--0-----------|

          F     Am     C
e|--5-4-1-4-1-0---------------------------------|
B|--------------1----1-3-5-3--5-6-5-3-5-3-1-1---|
G|----------------(2)---------------------------|
D|----------------------------------------------|
A|----------------------------------------------|
E|----------------------------------------------|

[Verse]
 "You watch them for hours, from slates and clock towers , the lines     below"
      Dm                         Am                           A#    F   C
e|----2-----------------------|---0----------------------|-----1-----1---0------|
B|----3-----------------------|---1----------------------|-----3-----1---1------|
G|----2-----------------------|---2----------------------|-----3-----2---0------|
D|----0-----------------------|---2----------------------|-----3-----3---2------|
A|----------------------------|---0----------------------|-----1-----3---3------|
E|----------------------------|--------------------------|-----------1----------|

 "But your life is other's and lovers and mothers , oh wooh wooh"
      Dm                       Am                   A# F    C 
e|----2---------------------|--0------------------|-1--1----3---|
B|----3---------------------|--1------------------|-3--1----3---|
G|----2---------------------|--2------------------|-3--2----0---|
D|----0---------------------|--2------------------|-3--3----0---|
A|--------------------------|--0------------------|-1--3--------|
E|--------------------------|---------------------|----1--------|

[verse]
    "Breeze blows from treetops to your destination , trapped in your imagination"
     C                 Gm              E      Am      A#    Gm              F
e|--------------------------------------------------------------------------------|
B|--------------------------------------------------------------------------------|
G|--------------------------------------------------------------------------------|
D|------0--2--3--2--0---------------0--2--0---------------------------------------|
A|---3-----------------2---------3------------0---------------------0--3----------|
E|------------------------------------------------0---1-----3---------------1-----|

 "She's     all    you can  see"
            Gm              C
e|-------------------------------|
B|-------------------------------|
G|-------------------------------|
D|-3--------5--------------------|
A|-------------------------------|
E|-1--------3-----1----0----1----|

[Chorus]
 "Black lock hearted you miss her , oh god how you miss her so"
           Dm                          E                    Am   Em   C
e|---------------------------------------------------------------------------|
B|---------------------------------------------------------------------------|
G|---------------------------------------------------------------------------|
D|---------------------------------------------------------------------------|
A|---------5---------------------------2------------------2-0--0-2--2-3------|
E|---------------------------------------------------------------------------|

 "Hallam foe           oh dandelion blow      ,    yes it's time...."
         Dm               E         Am   Em   C             Dm               E
e|------------------------------------------------------------------------------|
B|------------------------------------------------------------------------------|
G|------------------------------------------------------------------------------|
D|----------14--14-12--14\9------------------------------------14-----12-----9--|
A|--3/7--5----------------------0-2-0--0-2--2-3--3/7--------5-------------------|
E|----------12--12-10--12\7------------------------------------12-----10-----7--|

[Outro]
"...dandelion fly"
              Am
e|------------5---|
B|------------5---|
G|------------5---|
D|------------7---|
A|------------7---|
E|------------5---|


************************************

| (n) Ghost note
| h   Hammer-on
| p   Pull-off
| /   Slide up
| \   Slide down

************************************

            
            
Suggest correction
Creating personal tab
Creating personal tab
You can edit any tab online and save it as your Personal.

You can edit, replace or remove any tab part or add personal notes – all changes will be seen only by you.

Personal tabs can be accessed anytime from any device, even offline.
Learn more »
Give kudos to tab author, rate the tab!
1 2 3 4 5
comments
print report bad tab
guest
You may want to rate the tab now too:
select rating
Wanna post a correction for this tab? Suggest correction