Oops, an error
Loading. Please wait.

Love Illumination Tab

version 1
version 1

Intro

Whole song

Interactive

16,327 views 6 this week
1 commentread comment
1 2 3 4 5
accurate
x 10
add to favorites
launch autoscroll
font size
0
reset
how to read this tab
guitar tuner
Tab Pro tools
  • play this tab
  • loop segment
  • change instrument
  • show fretboard
  • metronome
×
Best way to learn
"Love Illumination"
Autoscroll
slow
fast
+/-
esc
set tempo
stop
Contributor
Difficulty
intermediate
-------------------------------------------------------------------------------
                             Love Illumination - Franz Ferdinand
-------------------------------------------------------------------------------
Tabbed by: Matthew Ridderikhoff
E-mail: hiddenrevs@gmail.com

Tuning: Standard (EADGBe)

e|---------------------------------------------------------------------------|
B|---------------------------------------------------------------------------|
G|--------------2-0-------------------2-0-------------------2-0--------------|
D|------------------2---------------------2---------------------0-2----------|
A|------0-1-2-----------------0-1-2-----------------0-1-2-3------------------|
E|-0-3--------0----------0-3--------0-----------0-3--------------------------|

e|---------------------------------------------------------------------------|
B|---------------------------------------------------------------------------|
G|-------------2-0------------------2-0------------------2-0-----------------|
D|-----------------2--------0-1-2-------2--------------------0-2-------------|
A|---3-2-0---0----------0-3----------------------0-1-2-----------------------|
E|-0-------3----------------------0----------0-3-------0---------------------|


************************************

| /   slide up
| \   slide down
| h   hammer-on
| p   pull-off
| ~   vibrato
| +   harmonic
| x   Mute note
| b   Bend
| pb  Pre-bend
| br  Bend release
| pbr Pre-bend release
| brb Bend release bend

************************************
comments
print report bad tab
1 comment total.
0 reply
jiligier wrote on December 27 2013, 03:59 pm

Great tab for Alex's guitar but Nick's is a bit different

e|------------------------|
B|-------------10-8-------|
G|------------------7-9---|
D|------------------------|
A|------------------------|
E|-0-3-5-6-7-0------------|

I want to post or [tab]
guest
You may want to rate the tab now too:
select rating
Please do not post tabs as comments. Select "correction" instead!