Oops, an error
Loading. Please wait.

Take Me Out Tab

version 1
version 1
422,094 views 408 this week
5 commentsread comments
1 2 3 4 5
accurate
x 26
add to favorites
launch autoscroll
font size
0
reset
how to read this tab
guitar tuner
Autoscroll
slow
fast
+/-
esc
set tempo
stop
Help us to improve Ultimate-Guitar.com Take our survey!
×
Tabber: Lyingfromyou118
Song: Take Me Out
Band: Franz Ferdinand

Well now, this is an extremely large tab, mostly because Franz Ferdinand layered
their guitars. There are actually 3 in the song. Here is the exact tab, trust me,
this is 100% right.


  [Intro]

   Q=140
  4/4
   Gtrs I, II
e|-----|---------------|-------------------|
B|-----|---------------|-------------------|
G|-----|---------------|-------------------|
D|-----|---------------|-------------------|
A|-7-7-|-7-7-7-7-7-7-7-|--7--7-7-7-7-7-7-7-|
E|-----|---------------|-------------------|
|
 | Gtr III
e|-----|---------------|-------------------|
B|-----|---------------|-------------------|
G|-----|---------------|-------------------|
D|-2-2S|=7-------------|-(7)---------------|
A|-0-0-|-0-------------|-(0)---------------|
E|-----|---------------|-------------------|

   G.I,II
e|-------------------|--------------------|
B|-------------------|--------------------|
G|-------------------|--------------------|
D|-------------------|--------------------|
A|--7--7-7-7-7-7-7-7-|--7--7-7-7-7-7-7-7--|
E|-------------------|--------------------|
| G.III
e|-------------------|--------------------|
B|-------------------|--------------------|
G|-------------------|--------------------|
D|-(7)---------------|-(7)----------------|
A|-(0)---------------|-(0)----------------|
E|-------------------|--------------------|


 [Verse]

   Gtr II
e|-----------------|-----------------|---------------------|-----------------|
B|-----------------|-----------------|---------------------|-----------------|
G|-----------------|-----------------|---------------------|-----------------|
D|-5-5-5-5-5-5-5-5-|-4-4-4-4-4-4-4-4S|==9--9--9--9-7-7-7-5-|-5-5-5-5-5-------|
A|-----------------|-----------------|---------------------|-----------5-5-7-|
E|-----------------|-----------------|---------------------|-----------------|
|
 | Gtr I
e|-----------------|-----------------|---------------------|-----------------|
B|-----------------|-----------------|---------------------|-----------------|
G|-----------------|-----------------|---------------------|-----------------|
D|-----------------|-----------------|---------------------|-----------------|
A|-7-7-7-7-7-7-7-7-|-9-9-9-9-9-9-9-9-|-10-10-10-10-9-9-9-9-|-7-7-7-7-7-7-7-7-|
E|-----------------|-----------------|---------------------|-----------------|

   G.II
e|-----------------|-----------------|---------------------|-----------------|
B|-----------------|-----------------|---------------------|-----------------|
G|-----------------|-----------------|---------------------|-----------------|
D|-5-5-5-5-5-5-5-5-|-4-4-4-4-4-4-4-4S|==9--9--9--9-7-7-7-5-|-5-5-5-5-5-5-5---|
A|-----------------|-----------------|---------------------|---------------5-|
E|-----------------|-----------------|---------------------|-----------------|
| G.I
e|-----------------|-----------------|---------------------|-----------------|
B|-----------------|-----------------|---------------------|-----------------|
G|-----------------|-----------------|---------------------|-----------------|
D|-----------------|-----------------|---------------------|-----------------|
A|-7-7-7-7-7-7-7-7-|-9-9-9-9-9-9-9-9-|-10-10-10-10-9-9-9-9-|-7-7-7-7-7-7-7-7-|
E|-----------------|-----------------|---------------------|-----------------|

   G.II
e|-----------------|-----------------|---------------------|-----------------|
B|-----------------|-----------------|---------------------|-----------------|
G|-----------------|-----------------|---------------------|-----------------|
D|---5-5-5-5-5-5-5-|-4-4-4-4-4-4-4-4S|==9--9--9--9-7-7-7-5-|-5-5-5-5-5-0-5-0-|
A|-7---------------|-----------------|---------------------|-----------------|
E|-----------------|-----------------|---------------------|-----------------|
| G.I
e|-----------------|-----------------|---------------------|-----------------|
B|-----------------|-----------------|---------------------|-----------------|
G|-----------------|-----------------|---------------------|-----------------|
D|-----------------|-----------------|---------------------|-----------------|
A|-7-7-7-7-7-7-7-7-|-9-9-9-9-9-9-9-9-|-10-10-10-10-9-9-9-9-|-7-7-7-7-7-7-7-7-|
E|-----------------|-----------------|---------------------|-----------------|

   G.II
e|-----------------|-----------------|---------------------|-----------------|
B|-----------------|-----------------|---------------------|-----------------|
G|-----------------|-----------------|---------------------|-----------------|
D|-5-5-5-5-5-5-5-5-|-4-4-4-4-4-4-4-4S|==9--9--9--9-7-7-7-5-|-5-5-5---5-5-5---|
A|-----------------|-----------------|---------------------|---------------5-|
E|-----------------|-----------------|---------------------|-----------------|
| G.I
e|-----------------|-----------------|---------------------|-----------------|
B|-----------------|-----------------|---------------------|-----------------|
G|-----------------|-----------------|---------------------|-----------------|
D|-----------------|-----------------|---------------------|-----------------|
A|-7-7-7-7-7-7-7-7-|-9-9-9-9-9-9-9-9-|-10-10-10-10-9-9-9-9-|-7-7-7-7-7-7-7-7-|
E|-----------------|-----------------|---------------------|-----------------|


  [Verse]

   G.II
e|-------------------------|------------------|
B|-------------------------|------------------|
G|-------------------------|------------------|
D|--5--5--5--5--7--7--7----|------------------|
A|-----------------------7-|-7-7-7-7-7-7-7-7--|
E|-------------------------|------------------|
| G.I
e|-------------------------|------------------|
B|-------------------------|------------------|
G|-------------------------|------------------|
D|-------------------------|------------------|
A|-10-10-10-10-12-12-12-12S|=7-7-7-7-7-7-7-7\-|
E|-------------------------|------------------|
 
   G.II
e|-----------------|-------------------|
B|-----------------|-------------------|
G|-----------------|-------------------|
D|-----------------|-------------------|
A|-5-5-5-5-7-7-5-7-|-(7)-7-7-7-7-7-7-7-|
E|-----------------|-------------------|
| G.I
e|-----------------|-------------------|
B|-----------------|-------------------|
G|-----------------|-------------------|
D|-----------------|-------------------|
A|---------5-5-5-5-|-------------------|
E|-3-3-3-3---------|--0--0-0-0-0-0-0-0-|

I think you get the picture with the guitars, it's the same guitar as the
previous measure unless noted otherwise

e|-----------------|------------------|-----------------|------------------|
B|-----------------|------------------|-----------------|------------------|
G|-----------------|------------------|-----------------|------------------|
D|-----------------|------------------|-----------------|------------------|
A|-5-5-5-5-5-5-5-5-|-5-5-5-5-5-5-5-5--|-3-3-3-3-3-3-3-3-|-3-3-3-3-3-3-3/---|
E|-----------------|------------------|-----------------|------------------|
|
e|-----------------|------------------|-----------------|------------------|
B|-----------------|------------------|-----------------|------------------|
G|-----------------|------------------|-----------------|------------------|
D|-----------------|------------------|-----------------|------------------|
A|-----------------|-5-5-5-5-5-5-5-5\-|-----------------|-3-3-3-3-3-3------|
E|-3-3-3-3-3-3-3-3-|------------------|-1-1-1-1-1-1-1-1-|-------------0--0-|


                                    This is where it starts to slow down
e|-----------------|-----------------|
B|-----------------|-----------------|
G|-----------------|-----------------|
D|-7h9-9-9-9-9-9-9-|-9-9-9-9-9-9-9-9-|
A|-7---7-7-7-7-7-7-|-7-7-7-7-7-7-7-7-|
E|-----------------|-----------------|
|
e|-----------------|-----------------|
B|-----------------|-----------------|
G|---------9-9-9-9-|-9-9-9-9-9-9-9-9-|
D|---------x-x-x-x-|-x-x-x-x-x-x-x-x-|
A|-7-7-7-7-7-7-7-7-|-7-7-7-7-7-7-7-7-|
E|-0-0-0-0-0-0-0-0-|-0-0-0-0-0-0-0-0-|


 
e|-----------------|---------------------------------|
B|-8-------8---8---|-(9)-(9)-(9)-(9)-(9)-(9)-(9)-(9)-|
G|-x-------x---x---|--9---9---9---9---9---9---9---9--|
D|-9-9-9-9-9-9-9-9-|--x---x---x---x---x---x---x---x--|
A|-7-7-7-7-7-7-7-7-|--7---7---7---7---7---7---7---7--|
E|-----------------|--0---0---0---0---0---0---0---0--|
|
e|-----------------|---------------------------------|
B|-----------------|---------------------------------|
G|-9-9-9-9-9-9-9-9-|--9---9---9---9---9---9---9---9--|
D|-x-x-x-x-x-x-x-x-|--x---x---x---x---x---x---x---x--|
A|-7-7-7-7-7-7-7-7-|--7---7---7---7---7---7---7---7--|
E|-0-0-0-0-0-0-0-0-|--0---0---0---0---0---0---0---0--|


  [Verse]

   Q=106
   Gtr III
e|---------------------|---------------------|---------------------|
B|---------------------|---------------------|---------------------|
G|---------------------|---------------------|---------------------|
D|---------------------|---------------------|---------------------|
A|---------------------|---------------------|---------------------|
E|---------------------|---------------------|---------------------|
|
 | Gtr II
e|---------------------|---------------------|---------------------|
B|-8--8--8-x-8-8-------|-8--8--8-x-8-8-------|-8--8--8-x-8-8-------|
G|-x--x--x-x-x-x-------|-x--x--x-x-x-x-------|-x--x--x-x-x-x-------|
D|-9--9--9-x-9-9-------|-9--9--9-x-9-9-------|-9--9--9-x-9-9-------|
A|-7--7--7-x-7-7-0-----|-7--7--7-x-7-7-0-----|-7--7--7-x-7-7-0-----|
E|---------------0-----|---------------0-----|---------------0-----|
|
 | Gtr I
e|---------------------|---------------------|---------------------|
B|---------------------|---------------------|---------------------|
G|-9--9--9-x-9-9-9-9-9-|-9--9--9-x-9-9-9-9-9-|-9--9--9-x-9-9-9-9-9-|
D|-x--x--x-x-x-x-x-0-0-|-x--x--x-x-x-x-x-0-0-|-x--x--x-x-x-x-x-0-0-|
A|-7--7--7-x-7-7-7-0-0-|-7--7--7-x-7-7-7-0-0-|-7--7--7-x-7-7-7-0-0-|
E|---------------------|---------------------|---------------------|


                          [Verse]

e|---------------------||-------------------------------------|
B|---------------------||o---8--------------------------------|
G|---------------------||------9-9-7---7-9--------------------|
D|---------------------||------------9------------------------|
A|---------------------||o------------------------------------|
E|---------------------||-------------------------------------|
|
e|---------------------||-------------------------------------|
B|-8--8--8---x-8-8-----||o------------------------------------|
G|-x--x--x---x-x-x-----||--9---9-x-x-9-x-x-x-x----------------|
D|-9--9--9---x-9-9-----||--x---x-x-x-x-x-x-x-x----------------|
A|-7--7--7---x-7-7-0---||o-7---7-x-x-7-x-x-x-x----------------|
E|-----------------0---||-------------------------------------|
|
e|---------------------||-------------------------------------|
B|---------------------||o------------------------------------|
G|-9--9--9-x-9-9-9-9-9-||----x-7-7-7-7-7---7-7-7-9-(9)-7-9-9--|
D|-x--x--x-x-x-x-x-0-0-||----x-----------9--------------------|
A|-7--7--7-x-7-7-7-0-0-||o---x--------------------------------|
E|---------------------||-------------------------------------|


   Q=106
e|---------------------------------|
B|-----8---------------------------|
G|-------9-9-7-------9-------------|
D|-------------9-7-----------------|
A|---------------------------------|
E|---------------------------------|
|
e|---------------------------------|
B|---------------------------------|
G|-x-x-9-9-9---9-x-x-9-------------|
D|-x-x-x-x-x---x-x-x-x-------------|
A|-x-x-7-7-7---7-x-x-7-0--0--------|
E|---------------------0--0--------|
|
e|---------------------------------|
B|---------------------------------|
G|---7-7-7-7-7---7-7-7-9-(9)---9-9-|
D|-9-----------9-------------0-----|
A|---------------------------------|
E|---------------------------------|


e|----------------------------|---------------------------------||
B|---8------------------------|---7-7-7-7-7-7-7-7-7-7----------o||
G|-----9-9-7-------9----------|-----------------------7-7-7-7---||
D|-----------9-7--------------|---------------------------------||
A|----------------------------|--------------------------------o||
E|----------------------------|---------------------------------||
|
e|----------------------------|---------------------------------||
B|----------------------------|--------------------------------o||
G|----------------------------|---------------------------------||
D|-7---7-x-x-7-x-7-7-7-8------|-9-----9---x-x-9---x-9---9-------||
A|-x---x-x-x-x-x-x-x-x-x------|-x-----x---x-x-x---x-x---x------o||
E|-5---5-x-x-5-x-5-5-5-6------|-7-----7---x-x-7---x-7---7-5-----||
|
e|----------------------------|---------------------------------||
B|----------------------------|--------------------------------o||
G|---5-5-5-5-5-4-5-5-5-5--5-5-|---7-7-7-7-7---7-5---------------||
D|----------------------------|-------------0-----7-7-7---------||
A|----------------------------|-------------------7-7-7-7-7----o||
E|----------------------------|---------------------------------||


   [1st Chorus]

     Q=106
      Gtr II
e||------------------------------------|-------------------------------------|
B||o-----------------------------------|-------------------------------------|
G||---9------------9-----9-------------|-----9-9-----9---9-(9)-9-------------|
D||---x------------x-x-x-x-x-x-x-x-x---|-x-x-x-x-x-x-x-x-x-(x)-x-------------|
A||o--7------------7-x-x-7-x-x-x-x-x---|-x-x-7-7-x-x-7-x-7-(7)-7-0--0--------|
E||------------------------------------|-------------------------0--0--------|
|
 |       Gtr I
e||------------------------------------|-------------------------------------|
B||o-----------------------------------|-------------------------------------|
G||----x--7-7-7-7-7---7-7-7-9-(9)-7-9-9|-----7-7-7-7-7---7--7--7-9-(9)---9-9-|
D||----x------------9------------------|---9-----------9---------------0-----|
A||o---x-------------------------------|-------------------------------------|
E||------------------------------------|-------------------------------------|


e|------------------------------|---------------------------------||
B|------------------------------|--------------------------------o||
G|------------------------------|---------------------------------||
D|-7---7-----7---7-(7)-7-7----8-|-9-9-----9---9---9---------------||
A|-x-x-x-x-x-x-x-x-(x)-x-x----x-|-x-x-x-x-x-x-x---x--------------o||
E|-5-x-5-x-x-5-x-5-(5)-5-5----6-|-7-7-x-x-7-x-7---7-5-------------||
|
e|------------------------------|---------------------------------||
B|------------------------------|--------------------------------o||
G|---5-5-5-5-5-4-5--5--5-5--5-5-|---7-7-7-7-7---7-5---------------||
D|------------------------------|-------------0-----7-7-7---------||
A|------------------------------|-------------------7-7-7-7-7----o||
E|------------------------------|---------------------------------||


  [1st Chorus] (cont.)

   Q=106
       Gtr III
e|---------------------------------------|-----------------------------------|
B|------8--------------------------------|---8-------------------------------|
G|------------9-----9-----7-------7-----9|-------9---9---7-------7-----9-----|
D|----------------------------9----------|-------------------9---------------|
A|---------------------------------------|-----------------------------------|
E|---------------------------------------|-----------------------------------|
|
 |   Gtr II
e|---------------------------------------|-----------------------------------|
B|---------------------------------------|-----------------------------------|
G|---9--------------------9-x-x-9-x-x-x-x|-x-x-9-9-9-9-x-x-9-----------------|
D|---x--------------------x-x-x-x-x-x-x-x|-x-x-x-x-x-x-x-x-x-----------------|
A|---7--------------------7-x-x-7-x-x-x-x|-x-x-7-7-7-7-x-x-7-----0--0--------|
E|---------------------------------------|-----------------------0--0--------|
|
 |      Gtr I
e|---------------------------------------|-----------------------------------|
B|---------------------------------------|-----------------------------------|
G|------x-7-7-7-7-7---7-7-7-9-(9)-7-9-9--|-----7-7-7-7-7---7-7-7-9-(9)---9-9-|
D|------x-----------9--------------------|---9-----------9-------------0-----|
A|------x--------------------------------|-----------------------------------|
E|---------------------------------------|-----------------------------------|


e|----------------------------|----------------------------------||
B|---8------------------------|---7-7-7-7-7-7-7-7-7-7------------||
G|-----9---9---7-------7--9---|-----------------------7-7-7-7----||
D|-----------------9----------|----------------------------------||
A|----------------------------|----------------------------------||
E|----------------------------|----------------------------------||
|
e|----------------------------|----------------------------------||
B|----------------------------|----------------------------------||
G|----------------------------|----------------------------------||
D|-7---7-x-x-7-x-7---7-7----8-|-9-9-x-x-9-x-9---9----------------||
A|-x---x-x-x-x-x-x---x-x----x-|-x-x-x-x-x-x-x---x----------------||
E|-5---5-x-x-5-x-5---5-5----6-|-7-7-x-x-7-x-7---7-5--------------||
|
e|----------------------------|----------------------------------||
B|----------------------------|----------------------------------||
G|---5-5-5-5-5-4-5-5-5-5--5-5-|---7-7-7-7-7---7-5----------------||
D|----------------------------|-------------0-----7-7-7----------||
A|----------------------------|-------------------7-7-7-7-7------||
E|----------------------------|----------------------------------||


    [2nd and 3rd Choruses]

     Q=106
e||-------------7-------------7---------|------------7-----------7-----------|
B||o---7h=8-----------7h==8-------------|-----7h=8-------7h==8---------------|
G||---------------------------------9---|------------------------------9-----|
D||-------------------------------------|------------------------------------|
A||o------------------------------------|------------------------------------|
E||-------------------------------------|------------------------------------|
|
 |     Gtr II
e||-------------------------------------|------------------------------------|
B||o------------------------------------|------------------------------------|
G||----9-------------9-x-x-9-x-x-x-x----|-x-x-9--9-9-9-x-x-9-----------------|
D||----x-------------x-x-x-x-x-x-x-x----|-x-x-x--x-x-x-x-x-x-----------------|
A||o---7-------------7-x-x-7-x-x-x-x----|-x-x-7--7-7-7-x-x-7-----0--0--------|
E||-------------------------------------|------------------------0--0--------|
|
 |        Gtr I
e||-------------------------------------|------------------------------------|
B||o------------------------------------|------------------------------------|
G||--x-7-7-7-7-7---7-7-7-9-(9)-7-9-9----|-----7--7-7-7-7---7-7-7-9-(9)---9-9-|
D||--x-----------9----------------------|---9------------9-------------0-----|
A||o-x----------------------------------|------------------------------------|
E||-------------------------------------|------------------------------------|


e|-----------7-----------7------|-------------10-----------10------------||
B|-----7h=8------7h==8----------|-----7h==8--------7h==8----------------o||
G|--------------------------9---|-------------------------------9--7-----||
D|------------------------------|----------------------------------------||
A|------------------------------|---------------------------------------o||
E|------------------------------|----------------------------------------||
|
e|------------------------------|----------------------------------------||
B|------------------------------|---------------------------------------o||
G|------------------------------|----------------------------------------||
D|-7---7--x--x-7-x-7---7-7----8-|-9-9-x-x-9-x--9---9---------------------||
A|-x---x--x--x-x-x-x---x-x----x-|-x-x-x-x-x-x--x---x--------------------o||
E|-5---5--x--x-5-x-5---5-5----6-|-7-7-x-x-7-x--7---7-5-------------------||
|
e|------------------------------|----------------------------------------||
B|------------------------------|---------------------------------------o||
G|---5-5--5--5-5-4-5-5-5-5--5-5-|---7-7-7-7-7----7-5---------------------||
D|------------------------------|--------------0-----7-7-7---------------||
A|------------------------------|--------------------7-7-7--7-7---------o||
E|------------------------------|----------------------------------------||


 [2nd Chorus] (cont.)

   Q=106
   Gtr II
e|-------------------|-------------------|
B|-------------------|-------------------|
G|-9--9--9-x-9-------|-9--9--9-x-9-9-9---|
D|-x--x--x-x-x---0-0-|-x--x--x-x-x-x-x-0-|
A|-7--7--7-x-7---0-0-|-7--7--7-x-7-7-7-0-|
E|-------------------|-------------------|
|
e|-------------------|-------------------|
B|-------------------|-------------------|
G|-9--9--9-x-9-9-----|-9--9--9-x-9-9-9-0-|
D|-x--x--x-x-x-x-0-0-|-x--x--x-x-x-x-x-0-|
A|-7--7--7-x-7-7-0-0-|-7--7--7-x-7-7-7---|
E|-------------------|-------------------|


    [Bridge]
                                               4x
e||--------------------|-----------------------||
B||o-------------------|----------------------o||
G||--------------------|-----------------------||
D||--7-7-5-5-4-4-------|-----------------------||
A||o-------------7-5---|-2-3-2-3--3-5-3-5-----o||
E||--------------------|-----------------------||
|
 |                                             4x
e||--x-5-x-7---x-7-x-7-|-x-5-x-5--x-7-x-7-7----||
B||o-x-5-x-7---x-7-x-7-|-x-5-x-5--x-7-x-7-7---o||
G||--x-5-x-5---x-5-x-5-|-x-5-x-5--x-7-x-7-7----||
D||--------------------|-----------------------||
A||o-------------------|----------------------o||
E||--------------------|-----------------------||


  [1st Chorus] (cont.)

   Q=106
       Gtr III
e|-----------------------------------------|---------------------------------|
B|------8----------------------------------|8--------------------------------|
G|------------9-----9-----7------7-----9---|---9--9---7-----7-------9--------|
D|----------------------------------9------|--------------------9------------|
A|-----------------------------------------|---------------------------------|
E|-----------------------------------------|---------------------------------|
|
 |   Gtr II
e|---------------------------------------|-----------------------------------|
B|---------------------------------------|-----------------------------------|
G|---9--------------------9-x-x-9-x-x-x-x|-x-x-9-9-9-9-x-x-9-----------------|
D|---x--------------------x-x-x-x-x-x-x-x|-x-x-x-x-x-x-x-x-x-----------------|
A|---7--------------------7-x-x-7-x-x-x-x|-x-x-7-7-7-7-x-x-7-----0--0--------|
E|---------------------------------------|-----------------------0--0--------|
|
 |      Gtr I
e|---------------------------------------|-----------------------------------|
B|---------------------------------------|-----------------------------------|
G|------x-7-7-7-7-7---7-7-7-9-(9)-7-9-9--|-----7-7-7-7-7---7-7-7-9-(9)---9-9-|
D|------x-----------9--------------------|---9-----------9-------------0-----|
A|------x--------------------------------|-----------------------------------|
E|---------------------------------------|-----------------------------------|


e|----------------------------|----------------------------------||
B|---8------------------------|---7-7-7-7-7-7-7-7-7-7------------||
G|-----9---9---7-------7--9---|-----------------------7-7-7-7----||
D|-----------------9----------|----------------------------------||
A|----------------------------|----------------------------------||
E|----------------------------|----------------------------------||
|
e|----------------------------|----------------------------------||
B|----------------------------|----------------------------------||
G|----------------------------|----------------------------------||
D|-7---7-x-x-7-x-7---7-7----8-|-9-9-x-x-9-x-9---9----------------||
A|-x---x-x-x-x-x-x---x-x----x-|-x-x-x-x-x-x-x---x----------------||
E|-5---5-x-x-5-x-5---5-5----6-|-7-7-x-x-7-x-7---7-5--------------||
|
e|----------------------------|----------------------------------||
B|----------------------------|----------------------------------||
G|---5-5-5-5-5-4-5-5-5-5--5-5-|---7-7-7-7-7---7-5----------------||
D|----------------------------|-------------0-----7-7-7----------||
A|----------------------------|-------------------7-7-7-7-7------||
E|----------------------------|----------------------------------||


    [2nd and 3rd Choruses]

     Q=106
e||-------------7-------------7---------|------------7-----------7-----------|
B||o---7h=8-----------7h==8-------------|-----7h=8-------7h==8---------------|
G||---------------------------------9---|------------------------------9-----|
D||-------------------------------------|------------------------------------|
A||o------------------------------------|------------------------------------|
E||-------------------------------------|------------------------------------|
|
 |     Gtr II
e||-------------------------------------|------------------------------------|
B||o------------------------------------|------------------------------------|
G||----9-------------9-x-x-9-x-x-x-x----|-x-x-9--9-9-9-x-x-9-----------------|
D||----x-------------x-x-x-x-x-x-x-x----|-x-x-x--x-x-x-x-x-x-----------------|
A||o---7-------------7-x-x-7-x-x-x-x----|-x-x-7--7-7-7-x-x-7-----0--0--------|
E||-------------------------------------|------------------------0--0--------|
|
 |        Gtr I
e||---------------------------------------|----------------------------------|
B||o--------------------------------------|----------------------------------|
G||-------x-7-7-7-7-7---7-7-7-9-(9)-7-9-9-|---7--7-7-7-7---7-7-7-9-(9)---9-9-|
D||-------x-----------9-------------------|-9------------9-------------0-----|
A||o------x-------------------------------|----------------------------------|
E||---------------------------------------|----------------------------------|


e|-----------7-----------7------|-------------10-----------10------------||
B|-----7h=8------7h==8----------|-----7h==8--------7h==8----------------o||
G|--------------------------9---|-------------------------------9--7-----||
D|------------------------------|----------------------------------------||
A|------------------------------|---------------------------------------o||
E|------------------------------|----------------------------------------||
|
e|------------------------------|----------------------------------------||
B|------------------------------|---------------------------------------o||
G|------------------------------|----------------------------------------||
D|-7---7--x--x-7-x-7---7-7----8-|-9-9-x-x-9-x--9---9---------------------||
A|-x---x--x--x-x-x-x---x-x----x-|-x-x-x-x-x-x--x---x--------------------o||
E|-5---5--x--x-5-x-5---5-5----6-|-7-7-x-x-7-x--7---7-5-------------------||
|
e|------------------------------|----------------------------------------||
B|------------------------------|---------------------------------------o||
G|---5-5--5--5-5-4-5-5-5-5--5-5-|---7-7-7-7-7----7-5---------------------||
D|------------------------------|--------------0-----7-7-7---------------||
A|------------------------------|--------------------7-7-7--7-7---------o||
E|------------------------------|----------------------------------------||


  [Bridge] (cont.)

e|-------7-------7---------|---------7-------7-------------|
B|---7h8-----7h8---9-------|-----7-8-----7h8-----9---------|
G|-------------------------|-------------------------------|
D|-------------------------|-------------------------------|
A|-------------------------|-------------------------------|
E|-------------------------|-------------------------------|
|
e|-------------------------|-------------------------------|
B|-------------------------|-------------------------------|
G|-9-----9---9---x-9-9-9---|-9-9-9-9-9-x-9---9-9-9-9-9-----|
D|-x-0---x---x---x-x-x-x---|-x-x-x-x-x-x-x---x-x-x-x-x-----|
A|-7-0---7---7---x-7-7-7---|-7-7-7-7-7-x-7---7-7-7-7-7-----|
E|-------------------------|-------------------------------|
|
e|-------------------------|-------------------------------|
B|-------------------------|---------------0---------------|
G|---7-7-7-7-0-7-7---9-9-9-|-x-7-7-7-7-7-7---7-7-7-9-9-9-9-|
D|-----------------9-------|-----------------5-5-5---------|
A|-------------------------|-------------------------------|
E|-------------------------|-------------------------------|


e|-------10---------10-----------|----------|
B|---7h8--------7-8--------------|----------|
G|-----------------------9-7-----|----------|
D|-------------------------------|----------|
A|-------------------------------|----------|
E|-------------------------------|----------|
|
e|-------------------------------|----------|
B|-------------------------------|----------|
G|-------------------------------|----------|
D|-7-x----7-x-x-7----x-x-7-8-----|-9--------|
A|-x-x----x-x-x-x----x-x-x-x-----|-x--------|
E|-5-x----5-x-x-5----x-x-5-6-----|-7--------|
|
e|-------------------------------|----------|
B|-------------------------------|----------|
G|-x-4-5--5-5-4-5-5--5-5-5-5-5-5-|-7--------|
D|-------------------------------|----------|
A|-------------------------------|----------|
E|-------------------------------|----------|


  [Bridge] (cont.)

   Q=106
       Gtr III
e|---------------------------------------|-----------------------------------|
B|------8--------------------------------|---8-------------------------------|
G|------------9-----9-----7----7-------9-|-------9---9---7-------7-----9-----|
D|---------------------------9-----------|-------------------9---------------|
A|---------------------------------------|-----------------------------------|
E|---------------------------------------|-----------------------------------|
|
 |   Gtr II
e|---------------------------------------|-----------------------------------|
B|---------------------------------------|-----------------------------------|
G|---9------------------9-x-x-9-x-x-x-x--|-x-x-9-9-9-9-x-x-9-----------------|
D|---x------------------x-x-x-x-x-x-x-x--|-x-x-x-x-x-x-x-x-x-----------------|
A|---7------------------7-x-x-7-x-x-x-x--|-x-x-7-7-7-7-x-x-7-----0--0--------|
E|---------------------------------------|-----------------------0--0--------|
|
 |      Gtr I
e|---------------------------------------|-----------------------------------|
B|---------------------------------------|-----------------------------------|
G|------x-7-7-7-7-7---7-7-7-9-(9)-7-9-9--|-----7-7-7-7-7---7-7-7-9-(9)---9-9-|
D|------x-----------9--------------------|---9-----------9-------------0-----|
A|------x--------------------------------|-----------------------------------|
E|---------------------------------------|-----------------------------------|


e|----------------------------|----------------------------------||
B|---8------------------------|---7-7-7-7-7-7-7-7-7-7------------||
G|-----9---9---7-------7--9---|-----------------------7-7-7-7----||
D|-----------------9----------|----------------------------------||
A|----------------------------|----------------------------------||
E|----------------------------|----------------------------------||
|
e|----------------------------|----------------------------------||
B|----------------------------|----------------------------------||
G|----------------------------|----------------------------------||
D|-7---7-x-x-7-x-7---7-7----8-|-9-9-x-x-9-x-9---9----------------||
A|-x---x-x-x-x-x-x---x-x----x-|-x-x-x-x-x-x-x---x----------------||
E|-5---5-x-x-5-x-5---5-5----6-|-7-7-x-x-7-x-7---7-5--------------||
|
e|----------------------------|----------------------------------||
B|----------------------------|----------------------------------||
G|---5-5-5-5-5-4-5-5-5-5--5-5-|---7-7-7-7-7---7-5----------------||
D|----------------------------|-------------0-----7-7-7----------||
A|----------------------------|-------------------7-7-7-7-7------||
E|----------------------------|----------------------------------||


  [2nd Chorus] (cont.)

   Q=106
   Gtr II
e|-------------------|-------------------|
B|-------------------|-------------------|
G|-9--9--9-x-9-------|-9--9--9-x-9-9-9---|
D|-x--x--x-x-x---0-0-|-x--x--x-x-x-x-x-0-|
A|-7--7--7-x-7---0-0-|-7--7--7-x-7-7-7-0-|
E|-------------------|-------------------|
|
e|-------------------|-------------------|
B|-------------------|-------------------|
G|-9--9--9-x-9-9-----|-9--9--9-x-9-9-9-0-|
D|-x--x--x-x-x-x-0-0-|-x--x--x-x-x-x-x-0-|
A|-7--7--7-x-7-7-0-0-|-7--7--7-x-7-7-7---|
E|-------------------|-------------------|


    [Bridge]
                                               4x
e||--------------------|-----------------------||
B||o-------------------|----------------------o||
G||--------------------|-----------------------||
D||--7-7-5-5-4-4-------|-----------------------||
A||o-------------7-5---|-2-3-2-3--3-5-3-5-----o||
E||--------------------|-----------------------||
|
 |                                             4x
e||--x-5-x-7---x-7-x-7-|-x-5-x-5--x-7-x-7-7----||
B||o-x-5-x-7---x-7-x-7-|-x-5-x-5--x-7-x-7-7---o||
G||--x-5-x-5---x-5-x-5-|-x-5-x-5--x-7-x-7-7----||
D||--------------------|-----------------------||
A||o-------------------|----------------------o||
E||--------------------|-----------------------||


 [Outro]

   Gtr II
e|---------------------|---------------------|---------------------|------|
B|-8--8--8-x-8-8-------|-8--8--8-x-8-8-------|-8--8--8-x-8-8-------|-8----|
G|-x--x--x-x-x-x-------|-x--x--x-x-x-x-------|-x--x--x-x-x-x-------|-x----|
D|-9--9--9-x-9-9-------|-9--9--9-x-9-9-------|-9--9--9-x-9-9-------|-9----|
A|-7--7--7-x-7-7-0-----|-7--7--7-x-7-7-0-----|-7--7--7-x-7-7-0-----|-7----|
E|---------------0-----|---------------0-----|---------------0-----|-0----|
|
 | Gtr I
e|---------------------|---------------------|---------------------|------|
B|---------------------|---------------------|---------------------|------|
G|-9--9--9-x-9-9-9-9-9-|-9--9--9-x-9-9-9-9-9-|-9--9--9-x-9-9-9-9-9-|------|
D|-x--x--x-x-x-x-x-0-0-|-x--x--x-x-x-x-x-0-0-|-x--x--x-x-x-x-x-0-0-|------|
A|-7--7--7-x-7-7-7-0-0-|-7--7--7-x-7-7-7-0-0-|-7--7--7-x-7-7-7-0-0-|-7----|
E|---------------------|---------------------|---------------------|-0----|

Get this program, it's great.

*****************************************************************************
* Generated using Power Tab Editor by Brad Larsen - http://powertab.guitarnetwork.org *
*****************************************************************************



************************************

| x    Dead note
| (n)  Ghost note
| h    Hammer-on
| /    Slide up
| \    Slide down
|o o|  Reprise

************************************
Suggest correction
comments
print report bad tab
5 comments total. Showing first comments.
-1 reply
rachelt 10 wrote on March 23 2005, 12:00 am

there are better versions than this

0 reply
lyingfromyou118 200 wrote on May 12 2005, 12:00 am

THIS IS STRAIGHT OUT OF GUITAR WORLD! I POSTED IT ON HERE SO PEOPLE DIDN'T HAVE TO GO BUY IT! Jesus, so much for doing people favors. If you don't believe me, go by the issue with the damn tab in it.

0 reply
The King990 10 wrote on June 26 2012, 03:53 am

this is the right tab and thank you ^

guest
You may want to rate the tab now too:
select rating
Wanna post a correction for this tab? Suggest correction