Oops, an error
Loading. Please wait.
We have an official Take Me Out tab made by UG professional guitarists. Check out the tab »
×
169,876 views 24 this week
17 commentsread comments
1 2 3 4 5
x 69
add to favorites
×
Save as Personal and add changes to this tab that will be seen only by you. Learn more ›
×
You can save this tab as Personal to edit and correct it or add notes. All changes will be seen only by you. Learn more »
save as personal
new!
launch autoscroll
font size
0
reset
how to read this tab
guitar tuner
backing track
0:00
0:00
Autoscroll
slow
fast
+/-
esc
set tempo
stop
[Intro]
e|------------------------------------------------------------------------------|
B|------------------------------------------------------------------------------|
G|-9----------------------------------------------------------------------------|
D|-9----------------------------------------------------------------------------|
A|-7----------------------------------------------------------------------------|
E|------------------------------------------------------------------------------|
(guitar 2)

e|------------------------------------------------------------------------------|
B|------------------------------------------------------------------------------|
G|------------------------------------------------------------------------------|
D|-------------------------------5------4---------------9----7-----------5------|
A|-7-----------------------------7------5---------------10---9-----------7------|
E|------------------------------------------------------------------------------|
(guitar 1) (strum) So if you're lonely   You know I'm, here waiting for you

e|------------------------------------------------------------------------------|
B|------------------------------------------------------------------------------|
G|------------------------------------------------------------------------------|
D|-----5-5---------------4--------9----7---------5----------5-5----------4------|
A|-----5-7---------------5--------10---9---------7----------5-7----------5------|
E|------------------------------------------------------------------------------|
 I'm just a cross-hair   Just a shot away from you   If you leave here   You

e|------------------------------------------------------------------------------|
B|------------------------------------------------------------------------------|
G|------------------------------------------------------------------------------|
D|----------9-------7-----------5--------5-5----------------4--------9----7-----|
A|----------10------9-----------7--------5-7----------------5--------10---9-----|
E|------------------------------------------------------------------------------|
 leave me broken, shattered I lie   I'm just a cross-hair   Just a shot then

e|------------------------------------------------------------------------------|
B|------------------------------------------------------------------------------|
G|------------------------------------------------------------------------------|
D|--------5-----5-------7-------------------------------------------------------|
A|--------7---------------------7-----------5-----7--5-7--2------5--------------|
E|------------------------------------------------------------------------------|
 we can die   aaaaaah aaaaaah aaaaaah                   I know I won't be

e|------------------------------------------------------------------------------|
B|------------------------------------------------------------------------------|
G|------------------------------------------------------------------------------|
D|--------------5---------------------------------------------------------------|
A|-3------------3------2--------------------------------------------------------|
E|---------------------0--------------------------------------------------------|
 leaving here   with you  (continue playing E5)

e|------------------------------------------------------------------------------|
B|------------------------------------------------------------------------------|
G|-----------------------------------------------------9-9-9-9-9-9-9-9-9-9-9-9--|
D|-------------------------------------9-9-9-9-9-9-9-9-9-9-9-9-9-9-9-9-9-9-9-9--|
A|---------------------7-7-7-7-7-7-7-7-7-7-7-7-7-7-7-7-7-7-7-7-7-7-7-7-7-7-7-7--|
E|------------------------------------------------------------------------------|
(Guitar 2)

e|----------|
B|----------|
G|-9-9-9-9--|
D|-9-9-9-9--|
A|-7-7-7-7--|
E|----------|
(guitar 2)

[Break] (guitar 2, guitar 1 plays E5 in open)
e|-------------------|
B|-------------------|
G|-9--9--9-x-9-9--7--|
D|-9--9--9-x-9-9--7--|
A|-7--7--7-x-7-7--7--|
E|-------------------|

[Verse] 
(Guitar 1)
e|------------------------------------------------------------------------------|
B|------------------------------------------------------------------------------|
G|-7-7-7-7---7-7-7-7-9-9-9-9--7-7-7-7---7-7-7-7-9-9-9-9--5-5-5-5---5-5-5-5-5-5--|
D|-x-x-x-x---x-x-x-x-x-x-x-x--x-x-x-x---x-x-x-x-x-x-x-x--x-x-x-x---x-x-x-x-x-x--|
A|-5-5-5-5---5-5-5-5-7-7-7-7--5-5-5-5---5-5-5-5-7-7-7-7--3-3-3-3---3-3-3-3-3-3--|
E|------------------------------------------------------------------------------|

e|---------------------------------|
B|---------------------------------|
G|-5-5--7-7-7-7---7-7-7-7-4-4-4-4--|
D|-x-x--x-x-x-x---x-x-x-x-x-x-x-x--|
A|-3-3--5-5-5-5---5-5-5-5-2-2-2-2--|
E|---------------------------------|

[Lead Riff 1]
e|------------------------------------------------------------------------------|
B|------------------------------------------------------------------------------|
G|-12--9-9-7---7-9-9--12--9-9-7---7-9-9--12--9-9-7---7-9-9--11-11--11-11-11-11--|
D|-----------7------------------7------------------7----------------------------|
A|------------------------------------------------------------------------------|
E|------------------------------------------------------------------------------|

e|----------------|
B|----------------|
G|-11-11-7-7-7-7--|
D|----------------|
A|----------------|
E|----------------|

[Lead Riff 2]
e|-------------------------------------------------------------------10---------|
B|-------12-------12---------12-------12---------12-------12--------------------|
G|--9h11-----9h11----9--9h11-----9h11----9--9h11-----9h11----9--9h11-----9h11---|
D|------------------------------------------------------------------------------|
A|------------------------------------------------------------------------------|
E|------------------------------------------------------------------------------|

e|-10----|
B|-------|
G|----9--|
D|-------|
A|-------|
E|-------|

[Chorus] (with funky strumming pattern)
e|---------------------------5-----------------------------------|
B|-5-------------------------5----------------5------------------|
G|-5-------------------------5----------------5------------------|
D|-4-------------------------2----------------4------------------|
A|-5------------------------------------------5------------------|
E|---------------------------------------------------------------|
  I know I won't be leaving here, with you.  I know I won't be

e|---------5-----|
B|---------5-----|
G|---------5-----|
D|---------2-----|
A|---------------|
E|---------------|
 leaving here



************************************

| x  Dead note
| h  Hammer-on

************************************
Suggest correction
comments
print report bad tab
17 comments total. Showing first comments.
0 reply
loudspeaker89 0 Oct 09, 2004 08:00 PM

Good Tabs man...Sounds exactly right!
Rock On

0 reply
sindrep 10 May 10, 2005 08:00 PM

yeah very nice!

0 reply
rocker007 74 Oct 20, 2005 05:40 AM

wheres the bit that goes "i say take me out"?!

guest
You may want to rate the tab now too:
select rating
Wanna post a correction for this tab? Suggest correction