Oops, an error
Loading. Please wait.
We have an official Tell Her Tonight tab made by UG professional guitarists. Check out the tab »
×
5,681 views 3 this week
3 commentsread comments
1 2 3 4 5
x 11
add to favorites
×
Save as Personal and add changes to this tab that will be seen only by you. Learn more ›
×
You can save this tab as Personal to edit and correct it or add notes. All changes will be seen only by you. Learn more »
launch autoscroll
font size
0
reset
guitar tuner
edit
Autoscroll
slow
fast
+/-
esc
set tempo
stop
Author
Franz Ferdinand - Tell Her Tonight


Tabbed By : ChrKr
e-mail: chrkr@gmx.at

Tuning: Standard


Intro & during verse: ("I Only Watched Her Walk But She Saw It...")

   B E             A  E             B E             A  E
G|--------------------------------|--------------------------------|
D|--------------------------------|--------------------------------|
A|-----------------12\7---7-7-----|-----------------12\7----7-7----|
E|-7/12----12-12------------------|-7/12----12-12------------------|



Chorus: ("Gotta Have To Tell Her Tonight...")

   A               E       G        A               E        B
G|--------------------------------|--------------------------------|
D|-7-----7-7---7-----------5---5--|-7-----7-7---7------------------|
A|-----------------7---7----------|-----------------7---7----------|
E|--------------------------------|--------------------------7/----|

Verse again


Bridge: ("Gotta Tell Her, I Tell Her Tonight yeah...")

  G                           G#A  Bb                          A G#
G|--------------------------------|--------------------------------|
D|--------------------------------|--------------------------------|
A|--------------------------------|--------------------------------|
E|3-3-3-3-3-3-3-3-3-3-3-3-3-3-4-5-|6-6-6-6-6-6-6-6-6-6-6-6-6-6-5-4-|

  G                           G#A  Bb
G|--------------------------------|--------------------------------|
D|--------------------------------|--------------------------------|
A|--------------------------------|--------------------------------|
E|3-3-3-3-3-3-3-3-3-3-3-3-3-3-4-5-|6-6-6-6-6-6-6-6-6-6-6-6-6-6-6-6-|

Verse again


Last Part 
  G                           G#A  Bb                          B C
G|--------------------------------|--------------------------------|
D|--------------------------------|--------------------------------|
A|--------------------------------|--------------------------------|
E|3-3-3-3-3-3-3-3-3-3-3-3-3-3-4-5-|6-6-6-6-6-6-6-6-6-6-6-6-6-6-7-8-|


  C#                                 D     D#
G|---------------------------------|--------------------------------|
D|---------------------------------|--------------------------------|
A|---------------------------------|--------------------------------|
E|9-9-9-9-9-9-9-9-9-9-9-9-9-9-9-9-9|-10---11------------------------|
                                    let ring...


enjoy


| /  slide up
| \  slide down
| h  hammer-on
| p  pull-off
| ~  vibrato
| +  harmonic
| x  Mute note
===========================================================================
Suggest correction
Creating personal tab
Creating personal tab
You can edit any tab online and save it as your Personal.

You can edit, replace or remove any tab part or add personal notes – all changes will be seen only by you.

Personal tabs can be accessed anytime from any device, even offline.
Learn more »
comments
print report bad tab
3 comments total.
0 reply
Emmi 52 Oct 19, 2006 01:12 PM

Sounds perfect to me. Good job!

0 reply
Noble Cause 82 Aug 12, 2009 08:27 PM

i only think the chorus could use a bit of work

otherwise nice job

0 reply
clemburger 10 Aug 03, 2013 03:41 PM

In the chorus I think it sounds better to play 7/10 at the end instead of 7 on the A then 7/ on the E but other than that sounds awesome.

guest
You may want to rate the tab now too:
select rating
Wanna post a correction for this tab? Suggest correction