Oops, an error
Loading. Please wait.
We have an official This Fire tab made by UG professional guitarists. Check out the tab »
×
5,613 views 1 this week
3 commentsread comments
1 2 3 4 5
x 5
add to favorites
×
Save as Personal and add changes to this tab that will be seen only by you. Learn more ›
×
You can save this tab as Personal to edit and correct it or add notes. All changes will be seen only by you. Learn more »
launch autoscroll
font size
0
reset
guitar tuner
edit
Autoscroll
slow
fast
+/-
esc
set tempo
stop
Author
Difficulty
Hey. This is the easiest way to play it.
timing is hard to get across on tablature, so use your own intuition when playing
cheers

Verse riff
G|-----|--------------------------------------------------|
D|-----|------------------3-55--55--55--55----------------|
A|---3-|---55--55--55--555-----------------03-------------|
E|--5--|--------------------------------------------------|
   ^only play first time
Pre Chorus
G|------------------------------------------------------|
D|-2-2-2-2-2-2-2-2--------------------------------------|
A|-----------------5-5-5-5-5-5-5-5----------------------|
E|------------------------------------------------------|

Chorus
G|------------------------------------------------------|
D|------------------------------------------------------|
A|-5-5-5-5-5-5-5-5--------------------------------------|
E|-----------------1-1-1-1-1-1-1-1----------------------|

Pre Bridge
G|-----------------|
D|-----------------|
A|-5-5-5-5---------|
E|-----------------|

Bridge
G|----------------------------------------------------------------------|
D|-4-4-4-4-4-4-4-4-2-2-2-2-2-2-2-2-----------------2-2-2-2-2-2-2-2------|
A|---------------------------------2-2-2-2-2-2-2-2----------------------|
E|----------------------------------------------------------------------|

G|-----------------------------------------------------------------------|
D|-----------------2-2-2-2-2-2-2-2-1-1-1-1-1-1-1-1-----------------------|
A|-2-2-2-2-2-2-2-2---------------------------------5-5-5-5-5-5-5-5-------|
E|-----------------------------------------------------------------------|

G|------------------------------------------------------|
D|------------------------------------------------------|
A|-22222222-2-------------------------------------------|
E|------------------------------------------------------|


This is whats played, get the order yourselves, its not too hard at all, and i found 
good practise.

Tom Carroll
Suggest correction
Creating personal tab
Creating personal tab
You can edit any tab online and save it as your Personal.

You can edit, replace or remove any tab part or add personal notes – all changes will be seen only by you.

Personal tabs can be accessed anytime from any device, even offline.
Learn more »
comments
print report bad tab
3 comments total.
+2 reply
Thirteenstrings 258 Apr 04, 2013 04:30 PM

In the Chorus I think the second note should be a Bb rather than an F. Otherwise good tab!

Chorus
G|------------------------------------------------------|
D|------------------------------------------------------|
A|-5-5-5-5-5-5-5-5-1-1-1-1-1-1-1-1----------------------|
E|------------------------------------------------------|

+1 reply
kenny83x 10 Apr 11, 2014 09:14 AM

I like to play the Chorus like this. It does not sound exactly like the original, but i think it fits pretty good.

Chorus
G|--7-7-7-7-7-7-7-7-3-3-3-3-3-3-3-8---------------------|
D|------------------------------------------------------|
A|-5-5-5-5-5-5-5-5-1-1-1-1-1-1-1-6----------------------|
E|------------------------------------------------------|

guest
You may want to rate the tab now too:
select rating
Wanna post a correction for this tab? Suggest correction