Oops, an error
Loading. Please wait.

You Could Have It So Much Better bass

version 1
version 1

Whole song

Interactive

1,526 views 1 this week
1 commentread comment
1 2 3 4 5
x 4
add to favorites
×
Save as Personal and add changes to this tab that will be seen only by you. Learn more ›
×
You can save this tab as Personal to edit and correct it or add notes. All changes will be seen only by you. Learn more »
launch autoscroll
font size
0
reset
guitar tuner
edit
Autoscroll
slow
fast
+/-
esc
set tempo
stop
Author
	            You Could Have It So Much Better
                             Franz Ferdinand

This is my first tab for bass. Hope it's what your looking for. Any corrections, comments, 
the like can be emailed to me, or leave a comment here.

Tabbed By: Astro0930
e-mail: devils38matt@yahoo.com

Tuning:Standard

Verse - Bass comes in at "As I look at you now..."
 Play 2x.
G|---------------------------------------|
D|---------------------------------------|
A|--7-7-7-7--3-3-3-3---------0-0-0-0-----|
E|-------------------2-2-2-2-------------|

 Chorus
  Play 2x
G|--------------------------------------|
D|--------------------------------------|
A|----------33333333----------00000000--|
E|-00000000----------22222222-----------|

 Post Chorus
   Play 2x
G|----------------------------------|
D|----------------------------------|
A|---------3---3-----------0---0----|
E|-0---0-----------2---2------------|

 Verse
  Play 2x                                Then this
G|-------------------------------------|------------------|
D|-2-2-2-2-----------------------------|------------------|
A|----------3-3-3-3----------0-0-0-0---|---------0-0-0-0--|
E|-------------------2-2-2-2-----------|-2-2-2-2----------|

 Play 2x
G|-------------------------------------|
D|-2-2-2-2-----------------------------|
A|----------3-3-3-3----------0-0-0-0---|
E|-------------------2-2-2-2-----------|


 Chorus
  Play 2x (On second repeat, play last note 8 more times.)
G|---------------------------------------|
D|---------------------------------------|
A|----------33333333----------00000000---|
E|-00000000----------22222222------------|

 Solo

G|-----------------------------------|-------------------------------------|
D|-----------------------------------|-------------------------------------|
A|3333333333333333-------------------|-------------------0-0--0-0--0-0--0-0|
E|------------------0000000000000000-|2-2--2-2--2-2--2-2-------------------|

 Chorus
  Play 2x
G|---------------------------------------|
D|---------------------------------------|
A|----------33333333----------00000000---|
E|-00000000----------22222222------------|

 Verse
  Play 3x
G|-------------------------------------|
D|-2-2-2-2-----------------------------|
A|----------3-3-3-3----------0-0-0-0---|
E|-------------------2-2-2-2-----------|

Chorus
  Play 4x
G|----------------------------------------|
D|----------------------------------------|
A|----------33333333----------00000000----|
E|-00000000----------22222222-------------|

 End on:
G|-----|
D|-----|
A|--3--|
E|-----|

| /  slide up
| \  slide down
| h  hammer-on
| p  pull-off
| ~  vibrato
| +  harmonic
| x  Mute note
===============================================================================

            
            
Suggest correction
Creating personal tab
Creating personal tab
You can edit any tab online and save it as your Personal.

You can edit, replace or remove any tab part or add personal notes – all changes will be seen only by you.

Personal tabs can be accessed anytime from any device, even offline.
Learn more »
comments
print report bad tab
1 comment total.
0 reply
10Sam 93 Sep 28, 2011 11:34 AM

Congratulations! You have made a great job! I was searching for this tab :D I gave you 5 stars!!!

guest
You may want to rate the tab now too:
select rating
Wanna post a correction for this tab? Suggest correction