Oops, an error
Loading. Please wait.

German National Anthem tab

version 1
version 1

Whole song

Interactive

35,611 views 21 this week
1 commentread comment
1 2 3 4 5
x 5
add to favorites
×
Save as Personal and add changes to this tab that will be seen only by you. Learn more ›
×
You can save this tab as Personal to edit and correct it or add notes. All changes will be seen only by you. Learn more »
launch autoscroll
font size
0
reset
how to read this tab
guitar tuner
edit
Autoscroll
slow
fast
+/-
esc
set tempo
stop
Deutsche Nationalhymne (German National Anthem)                 

August Heinrich Hoffmann von Fallersleben nach Joseph Haydn


    Ei -   nig -    keit und     Recht auf     Frei - -  heit    für  das   
    Q.     E        Q    Q       Q     Q       E      E  Q       Q    Q     
e|---------------|------------|-------------|-----------------|------------|
B|---------------|------------|-------------|-----------------|--1---------|
G|---------------|--0---------|--1-----0----|-----------------|-------3----|
D|--1------3-----|-------3----|-------------|--3p-----0--1----|------------|
A|---------------|------------|-------------|-----------------|------------|
E|---------------|------------|-------------|-----------------|------------|


    deut - sche    Va - ter - -     land!       Da -   nach    laßt uns   
    Q      Q       Q    E     E     H           Q.     E       Q    Q     
e|--------------|----------------|-----------|--------------|------------|
B|--------------|----------------|-----------|--------------|------------|
G|--1------0----|-------0h-------|--3--------|--------------|--0---------|
D|--------------|--3----------1--|-----------|--1------3----|-------3----|
A|--------------|----------------|-----------|--------------|------------|
E|--------------|----------------|-----------|--------------|------------|


    al - le      stre - -  ben     brü - der -    lich mit     Herz und     
    Q    Q       E      E  Q       Q     Q        Q    Q       Q    E   E   
e|------------|-----------------|--------------|------------|--------------|
B|------------|-----------------|--1-----------|------------|--------------|
G|--1----0----|-----------------|--------3-----|--1----0----|-------0h-----|
D|------------|--3p-----0--1----|--------------|------------|--3--------1--|
A|------------|-----------------|--------------|------------|--------------|
E|------------|-----------------|--------------|------------|--------------|


    Hand!       Ei - nig -    keit    und     Recht und     Frei - -  heit  
    H           Q    Q        E    E  Q       Q     Q       E      E  Q     
e|-----------|-------------|---------------|-------------|-----------------|
B|-----------|-------------|---------------|-------------|-----------------|
G|--3--------|-------0-----|---------------|--1-----0----|-----------------|
D|-----------|--3----------|--3p---0-------|-------------|--3p-----0-------|
A|-----------|-------------|----------1----|-------------|------------1----|
E|-----------|-------------|---------------|-------------|-----------------|


    sind des     Glük - kes    Un - ter - -     pfand.        Blüh   im  
    Q    Q       Q.     E      Q    E     E     H             Q.     E   
e|------------|-------------|----------------|-----------||-------------|
B|------------|-------------|----------------|-----------||---4------3--|
G|--3----1----|--0------0---|--2----2-----3--|--3--------||*------------|
D|------------|-------------|----------------|-----------||*------------|
A|------------|-------------|----------------|-----------||-------------|
E|------------|-------------|----------------|-----------||-------------|


    Glan - -  ze      die -  ses    Glük - -  kes,    blü -  he,    
    E      E  Q       Q.     E      E      E  Q       Q.     S   S  
e|-----------------|-------------|-----------------|---------------|
B|--3p-----1-------|--1----------|-----------------|---------------|
G|------------3----|---------3---|--3p-----1--0----|---------0---1-|
D|-----------------|-------------|-----------------|--3------------|
A|-----------------|-------------|-----------------|---------------|
E|-----------------|-------------|-----------------|---------------|


    deut - -  sches       Va - ter - -     land!       
    E      E  E     E     Q    E     E     H           
e|---------------------|----------------|------------||
B|---------1-----------|----------------|------------||
G|--3p--------1h-------|-------0h-------|-----------*||
D|------------------3--|--1----------3--|--1--------*||
A|---------------------|----------------|------------||
E|---------------------|----------------|------------||




Duration Legend
---------------
W - whole
H - half
Q - quarter
E - 8th
S - 16th
. - note dotted


Tablature Legend
----------------
h - hammer on
p - pull off

^ - brush up
v - brush down

            
            
Suggest correction
Creating personal tab
Creating personal tab
You can edit any tab online and save it as your Personal.

You can edit, replace or remove any tab part or add personal notes – all changes will be seen only by you.

Personal tabs can be accessed anytime from any device, even offline.
Learn more »
comments
print report bad tab
1 comment total.
+1 reply
CharlieManson 20 May 31, 2008 05:50 AM

i need the chords please!

guest
You may want to rate the tab now too:
select rating
Wanna post a correction for this tab? Suggest correction