Oops, an error
Loading. Please wait.

Ave Maria Tab

version 1
version 1

Whole song

215,749 views 360 this week
2 commentsread comments
1 2 3 4 5
excellent!
x 25
add to favorites
launch autoscroll
font size
0
reset
how to read this tab
guitar tuner
Autoscroll
slow
fast
+/-
esc
set tempo
stop
Help us to improve Ultimate-Guitar.com Take our survey!
×
Author
Difficulty
advanced
Ave Maria by Franz Schubert
 

e||--2-----------------------2----|-----------------3--------------|
B||--3------------------3---------|--3--------------5--------------|
G||--2-------------2--------------|-------2---------4---------4----|
D||--4----------------------------|------------4----5--------------|
A||-------0-----------------------|--------------------------------|
E||-------------------------------|----------------------0---------|

e|-------3--------------3----5----|---------------------5---------|
B|--5---------5--------------5----|--------------------------5----|
G|-----------------4---------6----|----------------6--------------|
D|----------------------5---------|-----------5-------------------|
A|--------------------------------|--7----------------------------|
E|---------------------------5----|-------------------------------|

e|---------0----2-----------------|-----------7------------------|
B|--------------5-----------------|--3--------7------------------|
G|--6-----------2--------------2--|-----------7-------------7----|
D|--------------0---------0-------|--------------------9---------|
A|-------------------0------------|------------------------------|
E|--------------------------------|-----------7------------------|

e|-----7-----------0-----------------|--2--0-------------5------------|
B|--7-----0--2--3--3------------3----|-----3-------------5------------|
G|-----------------1-------1---------|-----1-------------6---------6--|
D|-----------------------------------|------------------------5-------|
A|-----------------2-----------------|-----2--------------------------|
E|----------------------0------------|--------------0----5------------|

e|-------5-------------------------|------------0---------10---------|
B|--5--------------0--2--3---------|-----------------3----7----------|
G|-----------------------2---------|-------2---------2----7----------|
D|------------7----------4---------|--4--------------4----------9----|
A|-----------------------0---------|---------------------------------|
E|----------------------------2----|-----------------2----7----------|
  

e|----------7-----0-----------------|-------0------------------0----|
B|-------7-----------7--9-----------|----7--3---------2-------------|
G|--7----------7--------7-----------|-------4----4----4-------------|
D|----------------------9-----------|-----------------2-------------|
A|----------------------7-----------|-----------------0-------------|
E|-------------------------------0--|-------4-----------------------|

e|-----------------------------------|--7-------------------------0--|
B|--7----------------------7--8--10--|--8-------------0--0--------0--|
G|--8-----------------8--------------|--9----------------0--------0--|
D|--7--------------7-----------------|--9----------------2-----------|
A|------------9----------------------|-----------7-------4-----------|
E|--7----7---------------------------|----------------------------0--|

e|--------------------0--------0-----|----------------------------------|
B|-----------------0-----7--8--10----|----------------3-----------------|
G|--------------0--------------11----|----------------4-----------------|
D|---------4-------------------0-----|----------------4--------------4--|
A|----2------------------------------|------12--12--------------5-------|
E|-----------------------------------|----------------3----3------------|

e|--------------0--2--3------------|------------3----5--7--9---------|
B|---------3----------5------------|-------5---------------10--------|
G|----4---------------4------------|----4------------------9---------|
D|---------------------------------|-----------------------11--------|
A|--------------------4---------4--|---------------------------------|
E|-------------------------0-------|---------------------------------|

e|---------------------0----2-------|---------------------0----------|
B|-------12--10-------------5-------|------------3--------10---------|
G|-----------12-------------2-------|---------2-----------11---------|
D|-----------11-------------0-------|----0----------------0----------|
A|-----------0-------------------0--|---------------------------0----|
E|--0-------------------------------|--------------------------------|

e|------------------------------------|-----------7----7-------------------|
B|-------10---------------10----------|-----------7----7---------12--------|
G|-------------11---------------11----|-------11--7----7----4----10--------|
D|--0----------------0----------------|--0--------6----6----4----12--------|
A|------------------------------------|---------------------5----11--------|
E|------------------------------------|---------------------4----------10--|

e|----------------------------------------10--|
B|--------------------------12--------12--10--|
G|--------------10------10------10--------10--|
D|----------12------12--------------------0---|
A|----11--------------------------------------|
E|--------------------------------------------|

e|-----------------------------------|---------------10--10-------------|
B|--------------10---------------10--|-------------------11-------------|
G|--------------------10-------------|----10-------------12-------------|
D|---------0----------------0--------|----------0-----------------------|
A|----0------------------------------|-----------------------------0----|
E|-----------------------------------|----------------------------------|

e|--------------0-----0----0---------|-----------------0----------0-----|
B|--------11---------------2---------|----------------------3--2--10----|
G|--12---------------------0---------|------------0---------------11----|
D|-----------------------------------|-------2--------------------0-----|
A|--------------10---------2---------|--0-------------------------------|
E|------------------------------0----|----------------------------------|

e|---------------------------------|------------------------------0--12--|
B|---------------------------8-----|----------------------8--7-------10--|
G|-----------11--------------9-----|-----------------9---------------12--|
D|-----------------12--------11----|-------------11----------------------|
A|------0--------------------0-----|-------12----------------------------|
E|---------------------------------|--0----------------------------------|

e|-------------9--0--------------|--------------------------------9--10--14--|
B|----------------10-------------|--12------------------------12---------15--|
G|----------------0--------------|--10--------------------10-------------14--|
D|----------------11-------------|--12----------------12-----------------0---|
A|--------------------------0----|--11----------11---------------------------|
E|--------0----------------------|--------10---------------------------------|

e|-------------------------------0---|---------------------9-----------12--|
B|-----------------15------------10--|-----------------12--10--12--10--10--|
G|-----------------------14--11--0---|-----------------12------12--12------|
D|-------------------------------11--|-------------------------------------|
A|--------0--------------------------|--------0----------------------------|
E|-----------------------------------|-------------------------------------|

e|--9------------------------------------|----------------------5-----------|
B|--10--10-------------------------------|--7---------7----7----------------|
G|------12--12--9--6--0--7-----9----7----|-------7---------6----------------|
D|----------11--7--5--7--7----------7----|-------6---------5----------------|
A|-----------------------9----------9----|-------------------------------9--|
E|-----------------------10---------8----|-------7---------6---------10-----|

e|---------------10----------------||
B|--------10-----------------------||
G|-----9------9--------------------||
D|--9------------------------------||
A|---------------------------------||
E|---------------------------------||
Suggest correction
What's this?
You can suggest a correction to this tab. Community and Mods will review your correction and vote to approve or reject it.
comments
print report bad tab
2 comments total.
0 reply
vchic33 15 wrote on January 1 2009, 05:05 pm

Thanks

0 reply
usva 58 wrote on November 26 2010, 04:38 pm

Thank you and god bless you.

guest
You may want to rate the tab now too:
select rating
Please do not post tabs as comments. Select "correction" instead!