Oops, an error
Loading. Please wait.

Nausea tab

13 views 6 this week
no commentswrite comment
1 2 3 4 5
3 more votes to show rating
add to favorites
×
Save as Personal and add changes to this tab that will be seen only by you. Learn more ›
×
You can save this tab as Personal to edit and correct it or add notes. All changes will be seen only by you. Learn more »
launch autoscroll
font size
0
reset
how to read this tab
guitar tuner
edit
Autoscroll
slow
fast
+/-
esc
set tempo
stop
This song is very repetitive and monotonous, so the repeat counts might be a bit off. Use your own
judgement and just have fun with it.

[Intro]
(Repeat these two measures for like two minutes. There is some very slight variation (specifically for 
playing the high F#), but it's otherwise the same throughout)
(You want these notes to ring so grip it as a chord - x7467x, can be a stretch at first)
   1  +  2  +  3  +  4  +    1  +  2  +  3  +  4  + 
e|-------------------------|-------------------------|
B|-------------------------|----------------------7--|
G|----6-----6-----6-----6--|----6-----6-----6--------|
D|-4-----4-----4-----------|-4-----4-----4-----------|
A|-------------------7-----|-------------------7-----|
E|-------------------------|-------------------------|

   1  +  2  +  3  +  4  +    1  +  2  +  3  +  4  +    1  +  2  +  3  +  4  +    1  +  2  +  3  +  4  +
e|-------------------------|-------------------------|-------------------------|-------------------------|
B|-7-----------------------|-------------------------|-7-----5-----------------|-------------------------|
G|-6-----------------------|-------------------------|----------7--6-----4-----|-------------------------|
D|-------------------------|-------------------------|-------------------------|-------------------------|
A|-------------------------|-------------------------|-------------------------|-------------------------|
E|-------------------------|-------------------------|-------------------------|-------------------------|

         PM
e|-------------------------|-------------------------|-------------------------|-------------------------|
B|-17----------------------|-------------------------|-7-----5-----------------|-------------------------|
G|-16----------------------|-------------------------|----------7--6-----4-----|-------------------------|
D|-------------------------|-------------------------|-------------------------|-------------------------|
A|-------------------------|-------------------------|-------------------------|-------------------------|
E|-------------------------|-------------------------|-------------------------|-------------------------|

(Not sure about this) 
e|-------------------------|-------------------------|-------------------------|-------------------------|
B|-0--0--0--0--0--0--0--0--|-0--0--0--0--0--0--0--0--|-0--0--0--0--0--0--0--0--|-0--0--0--0--0--0--0-----|
G|-0--0--0--0--0--0--0--0--|-0--0--0--0--0--0--0--0--|-0--0--0--0--0--0--0--0--|-0--0--0--0--0--0--0-----|
D|-9--9--9--9--9--9--9--9--|-9--9--9--9--9--9--9--9--|-9--9--9--9--9--9--9--9--|-9--9--9--9--9--9--9-----|
A|-14-14-14-14-14-14-14-14-|-14-14-14-14-14-14-14-14-|-14-14-14-14-14-14-14-14-|-14-14-14-14-14-14-14----|
E|-------------------------|-------------------------|-------------------------|-------------------------|

[Verse]
   1  +  2  +  3  +  4  +    1  +  2  +  3  +  4  + 
e|-------------------------|-------------------------|
B|-------------------------|----------------------7--|
G|----6-----6-----6-----6--|----6-----6-----6--------|
D|-4-----4-----4-----------|-4-----4-----4-----------|  (x3)
A|-------------------7-----|-------------------7-----|
E|-------------------------|-------------------------|

e|-------------------------|-------------------------|
B|-------------------------|-------------------------|
G|----6-----6-----6-----6--|----6-----6-----6-----6--|
D|-4-----4-----4-----------|-4-----4-----4-----------|  (x6)
A|-------------------7-----|-------------------7-----|
E|-------------------------|-------------------------|

e|-------------------------|-------------------------|
B|-------------------------|----------------------7--|
G|----6-----6-----6-----6--|----6-----6-----6--------|
D|-4-----4-----4-----------|-4-----4-----4-----------| 
A|-------------------7-----|-------------------7-----|
E|-------------------------|-------------------------|

[Bridge]
   1  +  2  +  3  +  4  +    1  +  2  +  3  +  4  +    1  +  2  +  3  +  4  +    1  +  2  +  3  +  4  +
e|-------------------------|-------------------------|-------------------------|-------------------------|
B|-7-----------------------|-------------------------|-7-----5-----------------|-------------------------|
G|-6-----------------------|-------------------------|----------7--6-----4-----|-------------------------|
D|-------------------------|-------------------------|-------------------------|-------------------------|
A|-------------------------|-------------------------|-------------------------|-------------------------|
E|-------------------------|-------------------------|-------------------------|-------------------------|

         PM
e|-------------------------|-------------------------|-------------------------|-------------------------|
B|-17----------------------|-------------------------|-7-----5-----------------|-------------------------|
G|-16----------------------|-------------------------|----------7--6-----4-----|-------------------------|
D|-------------------------|-------------------------|-------------------------|-------------------------|
A|-------------------------|-------------------------|-------------------------|-------------------------|
E|-------------------------|-------------------------|-------------------------|-------------------------|

e|-------------------------|-------------------------|-------------------------|-------------------------|
B|-0--0--0--0--0--0--0--0--|-0--0--0--0--0--0--0--0--|-0--0--0--0--0--0--0--0--|-0--0--0--0--0--0--0--0--|
G|-0--0--0--0--0--0--0--0--|-0--0--0--0--0--0--0--0--|-0--0--0--0--0--0--0--0--|-0--0--0--0--0--0--0--0--|
D|-9--9--9--9--9--9--9--9--|-9--9--9--9--9--9--9--9--|-9--9--9--9--9--9--9--9--|-9--9--9--9--9--9--9--9--|
A|-14-14-14-14-14-14-14-14-|-14-14-14-14-14-14-14-14-|-14-14-14-14-14-14-14-14-|-14-14-14-14-14-14-14-14-|
E|-------------------------|-------------------------|-------------------------|-------------------------|

[Verse]
   1  +  2  +  3  +  4  +    1  +  2  +  3  +  4  + 
e|-------------------------|-------------------------|
B|-------------------------|----------------------7--|
G|----6-----6-----6-----6--|----6-----6-----6--------|
D|-4-----4-----4-----------|-4-----4-----4-----------|  (x3)
A|-------------------7-----|-------------------7-----|
E|-------------------------|-------------------------|

e|-------------------------|-------------------------|
B|-------------------------|-------------------------|
G|----6-----6-----6-----6--|----6-----6-----6-----6--|
D|-4-----4-----4-----------|-4-----4-----4-----------|  (x3)
A|-------------------7-----|-------------------7-----|
E|-------------------------|-------------------------|
 
e|-------------------------|----------------------0--|
B|-------------------------|----------------------7--|
G|----6-----6-----6-----6--|----6-----6-----6--------|
D|-4-----4-----4-----------|-4-----4-----4-----------|  (x5)
A|-------------------7-----|-------------------7-----|
E|-------------------------|-------------------------|

[Outro]
   1  +  2  +  3  +  4  +    1  +  2  +  3  +  4  +    1  +  2  +  3  +  4  +    1  +  2  +  3  +  4  +
e|-------------------------|-------------------------|-------------------------|-------------------------|
B|-7-----------------------|-------------------------|-7-----5-----------------|-------------------------|
G|-6-----------------------|-------------------------|----------7--6-----4-----|-------------------------|
D|-------------------------|-------------------------|-------------------------|-------------------------|
A|-------------------------|-------------------------|-------------------------|-------------------------|
E|-------------------------|-------------------------|-------------------------|-------------------------|
  
e|-------------------------|-------------------------|-------------------------|-------------------------|
B|-16-16-16-16-16-16-16-16-|-16-16-16-16-16-16-16-16-|-16-16-16-16-16-16-16-16-|-16-16-16-16-16-16-16-16-|
G|-20-20-20-20-20-20-20-20-|-20-20-20-20-20-20-20-20-|-20-20-20-20-20-20-20-20-|-20-20-20-20-20-20-20-20-|
D|-------------------------|-------------------------|-------------------------|-------------------------|
A|-19-19-19-19-19-19-19-19-|-19-19-19-19-19-19-19-19-|-19-19-19-19-19-19-19-19-|-19-19-19-19-19-19-19-19-|
E|-------------------------|-------------------------|-------------------------|-------------------------|
    
e|-------------------------|-------------------------|-------------------------|-------------------------|
B|-16-16-16-16-16-16-16-16-|-16-16-16-16-16-16-16-16-|-16-16-16-16-16-16-16-16-|-7-----5-----------------|
G|-20-20-20-20-20-20-20-20-|-20-20-20-20-20-20-20-20-|-20-20-20-20-20-20-20-20-|----------7--6-----4-----|
D|-------------------------|-------------------------|-------------------------|-------------------------|
A|-19-19-19-19-19-19-19-19-|-19-19-19-19-19-19-19-19-|-19-19-19-19-19-19-19-19-|-------------------------|
E|-------------------------|-------------------------|-------------------------|-------------------------|
    
e|-------------------------|-------------------------|-------------------------|-------------------------|
B|-17-17-17-17-17-17-17-17-|-17-17-17-17-17-17-17-17-|-17-17-17-17-17-17-17-17-|-17-17-17-17-17-17-17-17-|
G|-21-21-21-21-21-21-21-21-|-21-21-21-21-21-21-21-21-|-21-21-21-21-21-21-21-21-|-21-21-21-21-21-21-21-21-|
D|-------------------------|-------------------------|-------------------------|-------------------------|
A|-19-19-19-19-19-19-19-19-|-19-19-19-19-19-19-19-19-|-19-19-19-19-19-19-19-19-|-19-19-19-19-19-19-19-19-|
E|-------------------------|-------------------------|-------------------------|-------------------------|

                                                                                    PM   
e|-------------------------|-------------------------|-------------------------|-------------------------|
B|-17-17-17-17-17-17-17-17-|-17-17-17-17-17-17-17-17-|-17-17-17-17-17-17-17-17-|-17----------------------|
G|-21-21-21-21-21-21-21-21-|-21-21-21-21-21-21-21-21-|-21-21-21-21-21-21-21-21-|-21----------------------|
D|-------------------------|-------------------------|-------------------------|-------------------------|
A|-19-19-19-19-19-19-19-19-|-19-19-19-19-19-19-19-19-|-19-19-19-19-19-19-19-19-|-19----------------------|
E|-------------------------|-------------------------|-------------------------|-------------------------|
   
e|-------------------------|-------------------------|-------------------------|-------------------------|
B|-16-16-16-16-16-16-16-16-|-16-16-16-16-16-16-16-16-|-16-16-16-16-16-16-16-16-|-16-16-16-16-16-16-16-16-|
G|-20-20-20-20-20-20-20-20-|-20-20-20-20-20-20-20-20-|-20-20-20-20-20-20-20-20-|-20-20-20-20-20-20-20-20-|
D|-------------------------|-------------------------|-------------------------|-------------------------|
A|-19-19-19-19-19-19-19-19-|-19-19-19-19-19-19-19-19-|-19-19-19-19-19-19-19-19-|-19-19-19-19-19-19-19-19-|
E|-------------------------|-------------------------|-------------------------|-------------------------|
   
e|-------------------------|-------------------------|-------------------------|-------------------------|
B|-16-16-16-16-16-16-16-16-|-16-16-16-16-16-16-16-16-|-16-16-16-16-16-16-16-16-|-16----------------------|
G|-20-20-20-20-20-20-20-20-|-20-20-20-20-20-20-20-20-|-20-20-20-20-20-20-20-20-|-20----------------------|
D|-------------------------|-------------------------|-------------------------|-------------------------|
A|-19-19-19-19-19-19-19-19-|-19-19-19-19-19-19-19-19-|-19-19-19-19-19-19-19-19-|-19----------------------|
E|-------------------------|-------------------------|-------------------------|-------------------------|

e|-------------------------|-------------------------|-------------------------|-------------------------|
B|----------------------19-|----------------------19-|----------------------19-|----------------------19-|
G|----21----------21-------|----21----------21-------|----21----------21-------|----21----------21-------|
D|-------------------------|-------------------------|-------------------------|-------------------------|
A|----------19-------------|----------19-------------|----------19-------------|----------19-------------|
E|-0-----0-----0-----0-----|-0-----0-----0-----0-----|-0-----0-----0-----0-----|-0-----0-----0-----0-----|
 
e|-------------------------|-------------------------|-------------------------|-------|
B|----------------------19-|----------------------19-|----------------------19-|-------|
G|----21----------21-------|----21----------21-------|----21----------21-------|----21-|
D|-------------------------|-------------------------|-------------------------|-------|
A|----------19-------------|----------19-------------|----------19-------------|-------|
E|-0-----0-----0-----0-----|-0-----0-----0-----0-----|-0-----0-----0-----0-----|-0-----|

   1  +  2  +  3  +  4  +    1  +  2  +  3  +  4  +  
e|-------------------------|-------------------------|
B|-7-----------5-----------|-------------0-----------|
G|-------------------------|-7-----6-----4-----------|
D|-------------------------|-------------------------|
A|-------------------------|-------------------------|
E|-------------------------|-------------------------|


***********************************

| PM  Palm mute

***********************************

            
            
Suggest correction
Creating personal tab
Creating personal tab
You can edit any tab online and save it as your Personal.

You can edit, replace or remove any tab part or add personal notes – all changes will be seen only by you.

Personal tabs can be accessed anytime from any device, even offline.
Learn more »
Give kudos to tab author, rate the tab!
1 2 3 4 5
comments
print report bad tab
guest
You may want to rate the tab now too:
select rating
Wanna post a correction for this tab? Suggest correction