Oops, an error
Loading. Please wait.

Time Is Over Tab

32 views 1 this week
no commentswrite comment
1 2 3 4 5
please rate
add to favorites
launch autoscroll
font size
0
reset
how to read this tab
guitar tuner
Tab Pro tools
  • play this tab
  • loop segment
  • change instrument
  • show fretboard
  • metronome
×
Best way to learn
"Time Is Over"
Autoscroll
slow
fast
+/-
esc
set tempo
stop
Contributor
Freaky Age-Time is over
Song: Time is over
Album: Every morning breaks out
Artist: Freaky Age
Tuning: Standard
Tabbed By: Tim Van de Voorde

Gtr I (E A D G B E) - 'Electric guitar-Lenny’
Gtr II (E A D G B E) - ‘Electric guitar-Mathias'


Intro
Gtr I
E|-10--
B|-10--
G|-11--  Listen to the song to get the rhythm!
D|-12--
A|-12--
E|-10--


“I’m sitting on top of the roof now”
Gtr I
E|-10-----3--|
B|-10-----3--|
G|-11-----4--|
D|-12-----5--|
A|-12-----5--|
E|-10-----3--|


“I was thinking about tomorrow’s party“
Gtr I
E|-10-------------------------3--------|
B|-10-------------------------3--------|
G|-11-------------------------4--------|
D|-12-------------------------5--------|
A|-12-------------------------5--------|
E|-10-------------------------3--------|

Gtr II
E|-------------------------------------|
B|--------7------------7---------------|
G|-7-(16x)-9---7-(16x)--9-----7-(16x)--|
D|-------------------------------------|
A|-------------------------------------|
E|-------------------------------------|


“And there are signs”
Gtr I
E|-2--------5---------|
B|-2--------5---------|
G|-2--------6---------|
D|-4--------7---------|
A|-4--------7---------|
E|-2--------5---------|

Gtr II
E|--------------------|
B|--------------------|
G|-11~------14-(16x)--|
D|--------------------|
A|--------------------|
E|--------------------|


“’Cuz our tim is over” (2x)
Gtr I
E|-2---------------------------3--|
B|-3---------------------------3--|
G|-4---------------------------4--|
D|-4---------------------------5--|
A|-2---------------------------5--|
E|-----------------------------3--|

Gtr II
E|--------------------------------------------------------|
B|--------------------------------------------------------|
G|-14-12-11-12-11-11-12-11-12--14-12-11-12-11-11-12-11-12-|
D|--------------------------------------------------------|
A|--------------------------------------------------------|
E|--------------------------------------------------------|

Gtr I
E|-5----------10--|
B|-5----------10--|
G|-6----------11--|
D|-7----------12--|
A|-7----------12--|
E|-5----------10--|

Gtr II
E|------------------------------------------|
B|--------------15-15-15-15-15-15-15-15-----|
G|-14-(16x)---14-14-14-14-14-14-14-14--14~--|
D|------------------------------------------|
A|------------------------------------------|
E|------------------------------------------|


“And whenever I start to sing“ (2x)
Gtr I
E|-10-------------------------3--------|
B|-10-------------------------3--------|
G|-11-------------------------4--------|
D|-12-------------------------5--------|
A|-12-------------------------5--------|
E|-10-------------------------3--------|

Gtr II
E|-------------------------------------|
B|--------7------------7---------------|
G|-7-(16x)-9---7-(16x)--9-----7-(16x)--|
D|-------------------------------------|
A|-------------------------------------|
E|-------------------------------------|


“And there are signs”
Gtr I
E|-2--------5---------|
B|-2--------5---------|
G|-2--------6---------|
D|-4--------7---------|
A|-4--------7---------|
E|-2--------5---------|

Gtr II
E|--------------------|
B|--------------------|
G|-11~------14-(16x)--|
D|--------------------|
A|--------------------|
E|--------------------|


“’Cuz our tim is over” (2x)
Gtr I
E|-2---------------------------3--|
B|-3---------------------------3--|
G|-4---------------------------4--|
D|-4---------------------------5--|
A|-2---------------------------5--|
E|-----------------------------3--|

Gtr II
E|--------------------------------------------------------|
B|--------------------------------------------------------|
G|-14-12-11-12-11-11-12-11-12--14-12-11-12-11-11-12-11-12-|
D|--------------------------------------------------------|
A|--------------------------------------------------------|
E|--------------------------------------------------------|

Gtr I
E|-5----------10--|
B|-5----------10--|
G|-6----------11--|
D|-7----------12--|
A|-7----------12--|
E|-5----------10--|

Gtr II
E|------------------------------------------|
B|--------------15-15-15-15-15-15-15-15-----|
G|-14-(16x)---14-14-14-14-14-14-14-14--14~--|
D|------------------------------------------|
A|------------------------------------------|
E|------------------------------------------|


SOLO
Gtr I
E|----------------------------------------------------------|
B|----------------------------------------------------------|
G|-14-12-11--14-12-11--14-12-11---11------11-------11-------| (2x)
D|---------------------------------14-12----14-12----14-12--|
A|----------------------------------------------------------|
E|----------------------------------------------------------|

Gtr II
E|-3------------------------------10-----|
B|-3------------------------------10-----|
G|-4------------------------------11-----| (2x)
D|-5------------------------------12-----|
A|-5------------------------------12-----|
E|-3------------------------------10-----|

Gtr I
E|----------------------------------------------------------|
B|----------------------------------------------------------|
G|-12-12-12-12-11-11-11-11----------------------------------|
D|------------------------14-14-14-14-12-12-12-12-14b16r14--|
A|----------------------------------------------------------|
E|----------------------------------------------------------|

Gtr II
E|-3----------------------------------------------5---------|
B|-3----------------------------------------------5---------|
G|-4----------------------------------------------6---------|
D|-5----------------------------------------------7---------|
A|-5----------------------------------------------7---------|
E|-3----------------------------------------------5---------|


“’Cuz our tim is over” (2x)
Gtr I
E|-2---------------------------3--|
B|-3---------------------------3--|
G|-4---------------------------4--|
D|-4---------------------------5--|
A|-2---------------------------5--|
E|-----------------------------3--|

Gtr II
E|--------------------------------------------------------|
B|--------------------------------------------------------|
G|-14-12-11-12-11-11-12-11-12--14-12-11-12-11-11-12-11-12-|
D|--------------------------------------------------------|
A|--------------------------------------------------------|
E|--------------------------------------------------------|

Gtr I
E|-5----------10--|
B|-5----------10--|
G|-6----------11--|
D|-7----------12--|
A|-7----------12--|
E|-5----------10--|

Gtr II
E|------------------------------------------|
B|--------------15-15-15-15-15-15-15-15-----|
G|-14-(16x)---14-14-14-14-14-14-14-14--14~--|
D|------------------------------------------|
A|------------------------------------------|
E|------------------------------------------|


“But it won’t work, time is over”
Gtr I
E|-2-----------------------------3----|
B|-3-----------------------------3----|
G|-4-----------------------------4----|
D|-4-----------------------------5----|
A|-2-----------------------------5----|
E|-------------------------------3----|

Gtr II
E|----------------------------------------------------------|
B|----------------------------------------------------------|
G|-14-12-11--14-12-11--14-12-11---11------11-------11-------| (2x)
D|---------------------------------14-12----14-12----14-12--|
A|----------------------------------------------------------|
E|----------------------------------------------------------|

Gtr I
E|-5------------------------------10--|
B|-5------------------------------10--|
G|-6------------------------------11--|
D|-7------------------------------12--|
A|-7------------------------------12--|
E|-5------------------------------10--|

Gtr II
E|----------------------------------------------------------|
B|----------------------------------------------------------|
G|-14-12-11--14-12-11--14-12-11---11------11-------11-------| (2x)
D|---------------------------------14-12----14-12----14-12--|
A|----------------------------------------------------------|
E|----------------------------------------------------------|

Gtr I
E|-3----------------------------------------------5---------|
B|-3----------------------------------------------5---------|
G|-4----------------------------------------------6---------|
D|-5----------------------------------------------7---------|
A|-5----------------------------------------------7---------|
E|-3----------------------------------------------5---------|

Gtr II
E|----------------------------------------------------------|
B|----------------------------------------------------------|
G|-12-12-12-12-11-11-11-11----------------------------------|
D|------------------------14-14-14-14-12-12-12-12-14b16r14--|
A|----------------------------------------------------------|
E|----------------------------------------------------------|

Gtr I &II
E|-10~~-
B|-10~~-
G|-11~~-
D|-12~~-
A|-12~~-
E|-10~~-

Tabbed by Tim Van de Voorde.
comments
We did not receive enough feedback on this tab! Please rate:
print report bad tab
1 2 3 4 5
I want to post or [tab]
guest
You may want to rate the tab now too:
select rating
Please do not post tabs as comments. Select "correction" instead!