Oops, an error
Loading. Please wait.

What If I Tab

106 views 1 this week
no commentswrite comment
1 2 3 4 5
please rate
add to favorites
launch autoscroll
font size
0
reset
how to read this tab
guitar tuner
Autoscroll
slow
fast
+/-
esc
set tempo
stop
Help us to improve Ultimate-Guitar.com Take our survey!
×
Author
Freaky Age-What if I
Song: What if I
Album: (From the heart of) Glitter Lake
Artist: Freaky Age
Tuning: Standard
Tabbed By: Tim Van de Voorde

Gtr I (E A D G B E) - 'Electric guitar-Lenny’
Gtr II (E A D G B E) - ‘Electric guitar-Mathias'

Intro
Gtr I
E|--2--5--7--7--\
B|--2--5--9--7-- \
G|--2--6--9--8--  \ Listen to the song to get the rhythm! (2x)
D|--4--7--9--9--  /
A|--4--7--7--9-- /
E|--2--5-----7--/

Gtr II
E|-----------------------------------------------------|
B|-----------------------------------------------------|
G|------9h11p9----9----------------9h11p9----9-11-11~--|
D|-9h11--------11---11-11~----9h11--------11-----------|
A|-----------------------------------------------------|
E|-----------------------------------------------------|
                                                            (2x)
E|-----------------------------------------------------|
B|-----------------------------------------------------|
G|------9h11p9----11b13r11-9~--------9h11p9----9-------|
D|-9h11--------11---------------9h11--------11---11-9~-|
A|-----------------------------------------------------|
E|-----------------------------------------------------|


“Crazy city gangsters in the nighttime”
Gtr I
E|--2--5--7--7--|
B|--2--5--9--7--|
G|--2--6--9--8--| (2x)
D|--4--7--9--9--|
A|--4--7--7--9--|
E|--2--5-----7--|

Gtr II
E|-----------------------------------------------------|
B|-----------------------------------------------------|
G|---------------------------9-11b13-11---11b13r11-9---| (2x)
D|-11---11-11p9---------9h11---------------------------|
A|--------------12---12--------------------------------|
E|-----------------------------------------------------|


“What if I”
Gtr I
E|--7--7--5--5--|
B|--9--7--5--5--|
G|--9--7--6--5--| (2x)
D|--9--9--7--7--|
A|--7--9--7--7--|
E|-----7--5--5--|

Gtr II
E|------------------------------------------------------------|
B|------------------------------------------------------------|
G|-11b13r11-9----11b13r11-11----11b13r11----11b13r11----------| (2x)
D|--------------------------------------11----------10--------|
A|------------------------------------------------------------|
E|------------------------------------------------------------|


Intro again
Gtr I
E|--2--5--7--7--|
B|--2--5--9--7--|
G|--2--6--9--8--|
D|--4--7--9--9--|
A|--4--7--7--9--|
E|--2--5-----7--|


Gtr II
E|-----------------------------------------------------|
B|-----------------------------------------------------|
G|------9h11p9----9----------------9h11p9----9-11-11~--|
D|-9h11--------11---11-11~----9h11--------11-----------|
A|-----------------------------------------------------|
E|-----------------------------------------------------|

E|-----------------------------------------------------|
B|-----------------------------------------------------|
G|------9h11p9----11b13r11-9~--------9h11p9----9-------|
D|-9h11--------11---------------9h11--------11---11-9~-|
A|-----------------------------------------------------|
E|-----------------------------------------------------|


“Crazy city slickers in the daytime”
Gtr I
E|--2--5--7--7--|
B|--2--5--9--7--|
G|--2--6--9--8--| (2x)
D|--4--7--9--9--|
A|--4--7--7--9--|
E|--2--5-----7--|

Gtr II
E|-----------------------------------------------------|
B|-----------------------------------------------------|
G|---------------------------9-11b13-11---11b13r11-9---| (2x)
D|-11---11-11p9---------9h11---------------------------|
A|--------------12---12--------------------------------|
E|-----------------------------------------------------|


“What if I”
Gtr I
E|--7--7--5--5--|
B|--9--7--5--5--|
G|--9--7--6--5--| (2x)
D|--9--9--7--7--|
A|--7--9--7--7--|
E|-----7--5--5--|

Gtr II
E|------------------------------------------------------------|
B|------------------------------------------------------------|
G|-11b13r11-9----11b13r11-11----11b13r11----11b13r11----------|
D|--------------------------------------11----------10--------|
A|------------------------------------------------------------|
E|------------------------------------------------------------|

E|-------------------------------------------------------------------|
B|-------------------------------------------------------------------|
G|-11b13r11-9----11b13r11-11----11b13r11----11b13r11-----9-11-12-12~-|
D|--------------------------------------11----------10-12------------|
A|-------------------------------------------------------------------|
E|-------------------------------------------------------------------|



“What if I”
No guitars, only drums first time.
Then:
Gtr II
E|----------------------------|
B|----------------------------|
G|-------11(8x)-12(8x)-14(8x)-|
D|-14(8x)---------------------|
A|----------------------------|
E|----------------------------|


Solo
Gtr I
E|--7--7--5--5--|
B|--9--7--5--5--|
G|--9--7--6--5--| (2x)
D|--9--9--7--7--|
A|--7--9--7--7--|
E|-----7--5--5--|

Gtr II
E|-------------------------------------------------------------------------------|
B|----------7----7----7----7----------------------------------------------15--15-|
G|-12-11-9--9b11-9b11-9b11-9b11-/16-16-14-16-14-12h14p12--12-12---12/16-16--16---|
D|------------------------------------------------------14------14---------------|
A|-------------------------------------------------------------------------------|
E|-------------------------------------------------------------------------------|



E|-12----12----12-----------------------------------------------------------|
B|-15b17-15b17-15b17r15-13-12-13-12--12------------------------------15--15-|
G|---------------------------------14---14-12h14p12--12-12---12-14/16--16---|
D|-------------------------------------------------14------14---------------|
A|--------------------------------------------------------------------------|
E|--------------------------------------------------------------------------|



“What if I”
Gtr I
E|--7--7--5--5--|
B|--9--7--5--5--|
G|--9--7--6--5--| (2x)
D|--9--9--7--7--|
A|--7--9--7--7--|
E|-----7--5--5--|

Gtr II
E|----------------------------------------------------------------|
B|------------------------------------15---15---15---15---15---15-|
G|---12---12---12---12---12---12-14/16---16---16---16---16---16---|
D|-14---14---14---14---14---14------------------------------------|
A|----------------------------------------------------------------|
E|----------------------------------------------------------------|

E|-----------------------------------------------------------------|
B|-----------------------------------------15---15-15/17-17-17-17~-|
G|---12---12---12---12---12---12-14/16---16---16-------------------|
D|-14---14---14---14---14---14-------------------------------------|
A|-----------------------------------------------------------------|
E|-----------------------------------------------------------------|

Tabbed by Tim Van de Voorde.
Suggest correction
What's this?
You can suggest a correction to this tab. Community and Mods will review your correction and vote to approve or reject it.
comments
We did not receive enough feedback on this tab! Please rate:
print report bad tab
1 2 3 4 5
guest
You may want to rate the tab now too:
select rating
Please do not post tabs as comments. Select "correction" instead!