Oops, an error
Loading. Please wait.

Where Do We Go Now tab

version 3
version 3

Whole song

1,161 views 1 this week
1 commentread comment
1 2 3 4 5
x 3
add to favorites
×
Save as Personal and add changes to this tab that will be seen only by you. Learn more ›
×
You can save this tab as Personal to edit and correct it or add notes. All changes will be seen only by you. Learn more »
launch autoscroll
font size
0
reset
how to read this tab
guitar tuner
edit
Autoscroll
slow
fast
+/-
esc
set tempo
stop
Author
Where Do We Go Now - Freaky Age - Tabbed By Brecht Thery
Guitar 1 EADGBE (Clean)
Guitar 2 EADGBE (Distorted)
Guitar 3 EADGBE (Distorted)
Guitar 4 EADGBE (Distorted / diffrent fom guitar 2)
Guitar 5 EADGBE (Crunchy Distorted)

Fun song to play this one. Especialy the intro and outro. Probably that's the trickiest 
of the song. You can find out your own technique
to play it, but for those who can't figure out, this is how I play it:
-index finger for the 8 on A-string.
-middlefinger for the 8 on D-string
-little finger for the 10 on G-string
Then move your index finger to the 6 on the A-string. Use your ring finger to play the 
on the E-string. Then again your index finger to play the 8 and 6 on the E-string.
To play the verses you can do the same. All the other parts are just some
barre chords and single notes. Starting from the bridge, you just play the other parts 2 
(1 note) higher.

Intro
|---------------------------------------------------------------------------|
|---------------------------------------------------------------------------|
|----10-------10--------10--------10--------10-10----10-------10-10----10---|
|--8--------8---------8---------8------------8--8-----8--------8--8-----8---|
|8------8-6------6----------------------------------------------------------|
|------------------10------10-8------8-6-----------6----6-6----------6----6-|
|Guitar 1

|---------------------------------------------------------------------------|
|---------------------------------------------------------------------------|
|----10-------10--------10--------10--------10-10----10-------10-10----10---|
|--8--------8---------8---------8------------8--8-----8--------8--8-----8---|
|8------8-6------6----------------------------------------------------------|
|------------------10------10-8------8-6-----------6----6-6----------6----6-|
|Guitar 1

|---------------------------------------------------------------------------|
|---------------------------------------------------------------------------|
|----10-------10--------10--------10--------10-10----10-------10-10----10---|
|--8--------8---------8---------8------------8--8-----8--------8--8-----8---|
|8------8-6------6----------------------------------------------------------|
|------------------10------10-8------8-6-----------6----6-6----------6----6-|
|Guitar 1

|---------------------------------------------------------------------------|
|---------------------------------------------------------------------------|
|----10-------10--------10--------10--------10-10----10-------10-10----10---|
|--8--------8---------8---------8------------8--8-----8--------8--8-----8---|
|8------8-6------6----------------------------------------------------------|
|------------------10------10-8------8-6-----------6----6-6----------6----6-|
|Guitar 1
|
|---------------------------------------------------------------------------|
|---------------------------------------------------------------------------|
|5--------3-----------------------------------------------------------------|
|-------------------7---------5--------3~-----------------------------------|
|---------------------------------------------------------------------------|
|---------------------------------------------------------------------------|
|Guitar 2

|---------------------------------------------------------------------------|
|---------------------------------------------------------------------------|
|----10-------10--------10--------10--------10-10----10-------10-10----10---|
|--8--------8---------8---------8------------8--8-----8--------8--8-----8---|
|8------8-6------6----------------------------------------------------------|
|------------------10------10-8------8-6-----------6----6-6----------6----6-|
|Guitar 1
|
|---------------------------------------------------------------------------|
|---------------------------------------------------------------------------|
|5--------3-----------------------------------------------------------------|
|-------------------7---------5--------3~-----------------------------------|
|---------------------------------------------------------------------------|
|---------------------------------------------------------------------------|
|Guitar 2


Heavy Intro
|1-1-1-1-1-1-1-1--8--8--8--8--8--8--8--8-10-10-10-10-10-10-10-10-6-6-6-6-6-6-6-6-|
|1-1-1-1-1-1-1-1--8--8--8--8--8--8--8--8-10-10-10-10-10-10-10-10-6-6-6-6-6-6-6-6-|
|2-2-2-2-2-2-2-2--9--9--9--9--9--9--9--9-11-11-11-11-11-11-11-11-7-7-7-7-7-7-7-7-|
|3-3-3-3-3-3-3-3-10-10-10-10-10-10-10-10-12-12-12-12-12-12-12-12-8-8-8-8-8-8-8-8-|
|3-3-3-3-3-3-3-3-10-10-10-10-10-10-10-10-12-12-12-12-12-12-12-12-8-8-8-8-8-8-8-8-|
|1-1-1-1-1-1-1-1--8--8--8--8--8--8--8--8-10-10-10-10-10-10-10-10-6-6-6-6-6-6-6-6-|
|Guitar 3
|
|--------------------------------------------------------------------------------|
|--------------------------------------------------------------------------------|
|5-5-5-5-3-3-3-3-----------------------------------------------------------------|
|-----------------7--7--7--7--5--5--5--5--3--3--3--3-----------------------------|
|-----------------------------------------------------5--5--5--5-3-3-3-3-3-3-3-3-|
|--------------------------------------------------------------------------------|
|Guitar 4

|1-1-1-1-1-1-1-1--8--8--8--8--8--8--8--8-10-10-10-10-10-10-10-10-6-6-6-6-6-6-6-6-|
|1-1-1-1-1-1-1-1--8--8--8--8--8--8--8--8-10-10-10-10-10-10-10-10-6-6-6-6-6-6-6-6-|
|2-2-2-2-2-2-2-2--9--9--9--9--9--9--9--9-11-11-11-11-11-11-11-11-7-7-7-7-7-7-7-7-|
|3-3-3-3-3-3-3-3-10-10-10-10-10-10-10-10-12-12-12-12-12-12-12-12-8-8-8-8-8-8-8-8-|
|3-3-3-3-3-3-3-3-10-10-10-10-10-10-10-10-12-12-12-12-12-12-12-12-8-8-8-8-8-8-8-8-|
|1-1-1-1-1-1-1-1--8--8--8--8--8--8--8--8-10-10-10-10-10-10-10-10-6-6-6-6-6-6-6-6-|
|Guitar 3
|
|--------------------------------------------------------------------------------|
|--------------------------------------------------------------------------------|
|5-5-5-5-3-3-3-3-----------------------------------------------------------------|
|-----------------7--7--7--7--5--5--5--5--3--3--3--3-----------------------------|
|-----------------------------------------------------5--5--5--5-3-3-3-3-3-3-3-3-|
|--------------------------------------------------------------------------------|
|Guitar 4


Verse
|------------------------------------------------------------------------------------------------|
|------------------------------------------------------------------------------------------------|
|10-10-10-10-10-10-10-10-10-10-10-10-10-10-10-10-10-10-10-10-10-10-10-10-10-10-10-10-10-10-10-10-|
|-8--8--8--8--8--8--8--8--8--8--8--8--8--8--8--8--8--8--8--8--8--8--8--8--8--8--8--8--8--8--8--8-|
|-8--8--8--8--6--6--6--6-------------------------------------------------------------------------|
|------------------------10-10-10-10--8--8--8--8--6--6--6--6--6--6--6--6--6--6--6--6--6--6--6--6-|
|Guitar3
|
|------------------------------------------------------------------------------------------------|
|------------------------------------------------------------------------------------------------|
|------10----------10----------10----------10-----------8--8--------8-----------8--8--------8----|
|-------8-----------8-----------8-----------8-----------8--8--------8-----------8--8--------8----|
|-------8-----------8-----------8-----------8-----------6--6--------6-----------6--6--------6----|
|------------------------------------------------------------------------------------------------|
|Guitar 5

|------------------------------------------------------------------------------------------------|
|------------------------------------------------------------------------------------------------|
|10-10-10-10-10-10-10-10-10-10-10-10-10-10-10-10-10-10-10-10-10-10-10-10-10-10-10-10-10-10-10-10-|
|-8--8--8--8--8--8--8--8--8--8--8--8--8--8--8--8--8--8--8--8--8--8--8--8--8--8--8--8--8--8--8--8-|
|-8--8--8--8--6--6--6--6-------------------------------------------------------------------------|
|------------------------10-10-10-10--8--8--8--8--6--6--6--6--6--6--6--6--6--6--6--6--6--6--6--6-|
|Guitar3
|
|------------------------------------------------------------------------------------------------|
|------------------------------------------------------------------------------------------------|
|------10----------10----------10----------10-----------8--8--------8-----------8--8--------8----|
|-------8-----------8-----------8-----------8-----------8--8--------8-----------8--8--------8----|
|-------8-----------8-----------8-----------8-----------6--6--------6-----------6--6--------6----|
|------------------------------------------------------------------------------------------------|
|Guitar 5

|------------------------------------------------------------------------------------------------|
|------------------------------------------------------------------------------------------------|
|10-10-10-10-10-10-10-10-10-10-10-10-10-10-10-10-10-10-10-10-10-10-10-10-10-10-10-10-10-10-10-10-|
|-8--8--8--8--8--8--8--8--8--8--8--8--8--8--8--8--8--8--8--8--8--8--8--8--8--8--8--8--8--8--8--8-|
|-8--8--8--8--6--6--6--6-------------------------------------------------------------------------|
|------------------------10-10-10-10--8--8--8--8--6--6--6--6--6--6--6--6--6--6--6--6--6--6--6--6-|
|Guitar3
|
|------------------------------------------------------------------------------------------------|
|------------------------------------------------------------------------------------------------|
|------10----------10----------10----------10-----------8--8--------8-----------8--8--------8----|
|-------8-----------8-----------8-----------8-----------8--8--------8-----------8--8--------8----|
|-------8-----------8-----------8-----------8-----------6--6--------6-----------6--6--------6----|
|------------------------------------------------------------------------------------------------|
|Guitar 5


Pre-Chorus
|-8--8--8--8--8--8--8--8--8--8--8--8--8--8--8--8-6-6-6-6-6-6-6-6-6-6-6-6-6-6-6-6-|
|-8--8--8--8--8--8--8--8--8--8--8--8--8--8--8--8-6-6-6-6-6-6-6-6-6-6-6-6-6-6-6-6-|
|-9--9--9--9--9--9--9--9--9--9--9--9--9--9--9--9-7-7-7-7-7-7-7-7-7-7-7-7-7-7-7-7-|
|10-10-10-10-10-10-10-10-10-10-10-10-10-10-10-10-8-8-8-8-8-8-8-8-8-8-8-8-8-8-8-8-|
|10-10-10-10-10-10-10-10-10-10-10-10-10-10-10-10-8-8-8-8-8-8-8-8-8-8-8-8-8-8-8-8-|
|-8--8--8--8--8--8--8--8--8--8--8--8--8--8--8--8-6-6-6-6-6-6-6-6-6-6-6-6-6-6-6-6-|
|Guitar 3
|
|--------------------------------------------------------------------------------|
|--------------------------------------------------------------------------------|
|5--5--5--5--3--3--3--3----------------------------------------------------------|
|------------------------7--7--7--7--5--5--5--5--3-3-3-3-------------------------|
|--------------------------------------------------------5-5-5-5-3-3-3-3-3-3-3-3-|
|--------------------------------------------------------------------------------|
|Guitar 4


Chorus
|-1--1--1--1--1--1--1--1--1--1--1--1--1--1--1--1-------------------------------------------------|
|-1--1--1--1--1--1--1--1--1--1--1--1--1--1--1--1-------------------------------------------------|
|-2--2--2--2--2--2--2--2--2--2--2--2--2--2--2--2--7--7--7--7--7--7--7--7--7--7--7--7--7--7--7--7-|
|-3--3--3--3--3--3--3--3--3--3--3--3--3--3--3--3--7--7--7--7--7--7--7--7--7--7--7--7--7--7--7--7-|
|-3--3--3--3--3--3--3--3--3--3--3--3--3--3--3--3--5--5--5--5--5--5--5--5--5--5--5--5--5--5--5--5-|
|-1--1--1--1--1--1--1--1--1--1--1--1--1--1--1--1-------------------------------------------------|
|Guitar 3
|
|------------------------------------------------------------------------------------------------|
|13-13-13-13-11-11-11-11-10-10-10-10-11-11-11-11-13-13-13-13-11-11-11-11-10-10-10-10-11-11-11-11-|
|------------------------------------------------------------------------------------------------|
|------------------------------------------------------------------------------------------------|
|------------------------------------------------------------------------------------------------|
|------------------------------------------------------------------------------------------------|
|Guitar 4

|-8--8--8--8--8--8--8--8--8--8--8--8--8--8--8--8--8--8--8--8--8--8--8--8--8--8--8--8--8--8--8--8-|
|-8--8--8--8--8--8--8--8--8--8--8--8--8--8--8--8--8--8--8--8--8--8--8--8--8--8--8--8--8--8--8--8-|
|-9--9--9--9--9--9--9--9--9--9--9--9--9--9--9--9--9--9--9--9--9--9--9--9--9--9--9--9--9--9--9--9-|
|10-10-10-10-10-10-10-10-10-10-10-10-10-10-10-10-10-10-10-10-10-10-10-10-10-10-10-10-10-10-10-10-|
|10-10-10-10-10-10-10-10-10-10-10-10-10-10-10-10-10-10-10-10-10-10-10-10-10-10-10-10-10-10-10-10-|
|-8--8--8--8--8--8--8--8--8--8--8--8--8--8--8--8--8--8--8--8--8--8--8--8--8--8--8--8--8--8--8--8-|
|Guitar 3
|
|------------------------------------------------------------------------------------------------|
|13-13-13-13-11-11-11-11-10-10-10-10-11-11-11-11-13-13-13-13-11-11-11-11-10-10-10-10-11-11-11-11-|
|------------------------------------------------------------------------------------------------|
|------------------------------------------------------------------------------------------------|
|------------------------------------------------------------------------------------------------|
|------------------------------------------------------------------------------------------------|
|Guitar 4

|-1--1--1--1--1--1--1--1--1--1--1--1--1--1--1--1-------------------------------------------------|
|-1--1--1--1--1--1--1--1--1--1--1--1--1--1--1--1-------------------------------------------------|
|-2--2--2--2--2--2--2--2--2--2--2--2--2--2--2--2--7--7--7--7--7--7--7--7--7--7--7--7--7--7--7--7-|
|-3--3--3--3--3--3--3--3--3--3--3--3--3--3--3--3--7--7--7--7--7--7--7--7--7--7--7--7--7--7--7--7-|
|-3--3--3--3--3--3--3--3--3--3--3--3--3--3--3--3--5--5--5--5--5--5--5--5--5--5--5--5--5--5--5--5-|
|-1--1--1--1--1--1--1--1--1--1--1--1--1--1--1--1-------------------------------------------------|
|Guitar 3
|
|------------------------------------------------------------------------------------------------|
|13-13-13-13-11-11-11-11-10-10-10-10-11-11-11-11-13-13-13-13-11-11-11-11-10-10-10-10-11-11-11-11-|
|------------------------------------------------------------------------------------------------|
|------------------------------------------------------------------------------------------------|
|------------------------------------------------------------------------------------------------|
|------------------------------------------------------------------------------------------------|
|Guitar 4

|-8--8--8--8--8--8--8--8--8--8--8--8--8--8--8--8--8--8--8--8--8--8--8--8--8--8--8--8--8--8--8--8-|
|-8--8--8--8--8--8--8--8--8--8--8--8--8--8--8--8--8--8--8--8--8--8--8--8--8--8--8--8--8--8--8--8-|
|-9--9--9--9--9--9--9--9--9--9--9--9--9--9--9--9--9--9--9--9--9--9--9--9--9--9--9--9--9--9--9--9-|
|10-10-10-10-10-10-10-10-10-10-10-10-10-10-10-10-10-10-10-10-10-10-10-10-10-10-10-10-10-10-10-10-|
|10-10-10-10-10-10-10-10-10-10-10-10-10-10-10-10-10-10-10-10-10-10-10-10-10-10-10-10-10-10-10-10-|
|-8--8--8--8--8--8--8--8--8--8--8--8--8--8--8--8--8--8--8--8--8--8--8--8--8--8--8--8--8--8--8--8-|
|Guitar 3
|
|------------------------------------------------------------------------------------------------|
|13-13-13-13-11-11-11-11-10-10-10-10-11-11-11-11-13-13-13-13-11-11-11-11-10-10-10-10-11-11-11-11-|
|------------------------------------------------------------------------------------------------|
|------------------------------------------------------------------------------------------------|
|------------------------------------------------------------------------------------------------|
|------------------------------------------------------------------------------------------------|
|Guitar 4


Verse
|------------------------------------------------------------------------------------------------|
|------------------------------------------------------------------------------------------------|
|10-10-10-10-10-10-10-10-10-10-10-10-10-10-10-10-10-10-10-10-10-10-10-10-10-10-10-10-10-10-10-10-|
|-8--8--8--8--8--8--8--8--8--8--8--8--8--8--8--8--8--8--8--8--8--8--8--8--8--8--8--8--8--8--8--8-|
|-8--8--8--8--6--6--6--6-------------------------------------------------------------------------|
|------------------------10-10-10-10--8--8--8--8--6--6--6--6--6--6--6--6--6--6--6--6--6--6--6--6-|
|Guitar3
|
|------------------------------------------------------------------------------------------------|
|------------------------------------------------------------------------------------------------|
|------10----------10----------10----------10-----------8--8--------8-----------8--8--------8----|
|-------8-----------8-----------8-----------8-----------8--8--------8-----------8--8--------8----|
|-------8-----------8-----------8-----------8-----------6--6--------6-----------6--6--------6----|
|------------------------------------------------------------------------------------------------|
|Guitar 5

|------------------------------------------------------------------------------------------------|
|------------------------------------------------------------------------------------------------|
|10-10-10-10-10-10-10-10-10-10-10-10-10-10-10-10-10-10-10-10-10-10-10-10-10-10-10-10-10-10-10-10-|
|-8--8--8--8--8--8--8--8--8--8--8--8--8--8--8--8--8--8--8--8--8--8--8--8--8--8--8--8--8--8--8--8-|
|-8--8--8--8--6--6--6--6-------------------------------------------------------------------------|
|------------------------10-10-10-10--8--8--8--8--6--6--6--6--6--6--6--6--6--6--6--6--6--6--6--6-|
|Guitar3
|
|------------------------------------------------------------------------------------------------|
|------------------------------------------------------------------------------------------------|
|------10----------10----------10----------10-----------8--8--------8-----------8--8--------8----|
|-------8-----------8-----------8-----------8-----------8--8--------8-----------8--8--------8----|
|-------8-----------8-----------8-----------8-----------6--6--------6-----------6--6--------6----|
|------------------------------------------------------------------------------------------------|
|Guitar 5

|------------------------------------------------------------------------------------------------|
|------------------------------------------------------------------------------------------------|
|10-10-10-10-10-10-10-10-10-10-10-10-10-10-10-10-10-10-10-10-10-10-10-10-10-10-10-10-10-10-10-10-|
|-8--8--8--8--8--8--8--8--8--8--8--8--8--8--8--8--8--8--8--8--8--8--8--8--8--8--8--8--8--8--8--8-|
|-8--8--8--8--6--6--6--6-------------------------------------------------------------------------|
|------------------------10-10-10-10--8--8--8--8--6--6--6--6--6--6--6--6--6--6--6--6--6--6--6--6-|
|Guitar 3
|
|------------------------------------------------------------------------------------------------|
|------------------------------------------------------------------------------------------------|
|------10----------10----------10----------10-----------8--8--------8-----------8--8--------8----|
|-------8-----------8-----------8-----------8-----------8--8--------8-----------8--8--------8----|
|-------8-----------8-----------8-----------8-----------6--6--------6-----------6--6--------6----|
|------------------------------------------------------------------------------------------------|
|Guitar 5

|------------------------------------------------------------------------------------------------|
|------------------------------------------------------------------------------------------------|
|10-10-10-10-10-10-10-10-10-10-10-10-10-10-10-10-10-10-10-10-10-10-10-10-10-10-10-10-10-10-10-10-|
|-8--8--8--8--8--8--8--8--8--8--8--8--8--8--8--8--8--8--8--8--8--8--8--8--8--8--8--8--8--8--8--8-|
|-8--8--8--8--6--6--6--6-------------------------------------------------------------------------|
|------------------------10-10-10-10--8--8--8--8--6--6--6--6--6--6--6--6--6--6--6--6--6--6--6--6-|
|Guitar 3
|
|------------------------------------------------------------------------------------------------|
|------------------------------------------------------------------------------------------------|
|------10----------10----------10----------10-----------8--8--------8-----------8--8--------8----|
|-------8-----------8-----------8-----------8-----------8--8--------8-----------8--8--------8----|
|-------8-----------8-----------8-----------8-----------6--6--------6-----------6--6--------6----|
|------------------------------------------------------------------------------------------------|
|Guitar 5


Pre-Chorus
|-8--8--8--8--8--8--8--8--8--8--8--8--8--8--8--8-6-6-6-6-6-6-6-6-6-6-6-6-6-6-6-6-|
|-8--8--8--8--8--8--8--8--8--8--8--8--8--8--8--8-6-6-6-6-6-6-6-6-6-6-6-6-6-6-6-6-|
|-9--9--9--9--9--9--9--9--9--9--9--9--9--9--9--9-7-7-7-7-7-7-7-7-7-7-7-7-7-7-7-7-|
|10-10-10-10-10-10-10-10-10-10-10-10-10-10-10-10-8-8-8-8-8-8-8-8-8-8-8-8-8-8-8-8-|
|10-10-10-10-10-10-10-10-10-10-10-10-10-10-10-10-8-8-8-8-8-8-8-8-8-8-8-8-8-8-8-8-|
|-8--8--8--8--8--8--8--8--8--8--8--8--8--8--8--8-6-6-6-6-6-6-6-6-6-6-6-6-6-6-6-6-|
|Guitar 3
|
|--------------------------------------------------------------------------------|
|--------------------------------------------------------------------------------|
|5--5--5--5--3--3--3--3----------------------------------------------------------|
|------------------------7--7--7--7--5--5--5--5--3-3-3-3-------------------------|
|--------------------------------------------------------5-5-5-5-3-3-3-3-3-3-3-3-|
|--------------------------------------------------------------------------------|
|Guitar 4


Chorus
|-1--1--1--1--1--1--1--1--1--1--1--1--1--1--1--1-------------------------------------------------|
|-1--1--1--1--1--1--1--1--1--1--1--1--1--1--1--1-------------------------------------------------|
|-2--2--2--2--2--2--2--2--2--2--2--2--2--2--2--2--7--7--7--7--7--7--7--7--7--7--7--7--7--7--7--7-|
|-3--3--3--3--3--3--3--3--3--3--3--3--3--3--3--3--7--7--7--7--7--7--7--7--7--7--7--7--7--7--7--7-|
|-3--3--3--3--3--3--3--3--3--3--3--3--3--3--3--3--5--5--5--5--5--5--5--5--5--5--5--5--5--5--5--5-|
|-1--1--1--1--1--1--1--1--1--1--1--1--1--1--1--1-------------------------------------------------|
|Guitar 3
|
|------------------------------------------------------------------------------------------------|
|13-13-13-13-11-11-11-11-10-10-10-10-11-11-11-11-13-13-13-13-11-11-11-11-10-10-10-10-11-11-11-11-|
|------------------------------------------------------------------------------------------------|
|------------------------------------------------------------------------------------------------|
|------------------------------------------------------------------------------------------------|
|------------------------------------------------------------------------------------------------|
|Guitar 4

|-8--8--8--8--8--8--8--8--8--8--8--8--8--8--8--8--8--8--8--8--8--8--8--8--8--8--8--8--8--8--8--8-|
|-8--8--8--8--8--8--8--8--8--8--8--8--8--8--8--8--8--8--8--8--8--8--8--8--8--8--8--8--8--8--8--8-|
|-9--9--9--9--9--9--9--9--9--9--9--9--9--9--9--9--9--9--9--9--9--9--9--9--9--9--9--9--9--9--9--9-|
|10-10-10-10-10-10-10-10-10-10-10-10-10-10-10-10-10-10-10-10-10-10-10-10-10-10-10-10-10-10-10-10-|
|10-10-10-10-10-10-10-10-10-10-10-10-10-10-10-10-10-10-10-10-10-10-10-10-10-10-10-10-10-10-10-10-|
|-8--8--8--8--8--8--8--8--8--8--8--8--8--8--8--8--8--8--8--8--8--8--8--8--8--8--8--8--8--8--8--8-|
|Guitar 3
|
|------------------------------------------------------------------------------------------------|
|13-13-13-13-11-11-11-11-10-10-10-10-11-11-11-11-13-13-13-13-11-11-11-11-10-10-10-10-11-11-11-11-|
|------------------------------------------------------------------------------------------------|
|------------------------------------------------------------------------------------------------|
|------------------------------------------------------------------------------------------------|
|------------------------------------------------------------------------------------------------|
|Guitar 4

|-1--1--1--1--1--1--1--1--1--1--1--1--1--1--1--1-------------------------------------------------|
|-1--1--1--1--1--1--1--1--1--1--1--1--1--1--1--1-------------------------------------------------|
|-2--2--2--2--2--2--2--2--2--2--2--2--2--2--2--2--7--7--7--7--7--7--7--7--7--7--7--7--7--7--7--7-|
|-3--3--3--3--3--3--3--3--3--3--3--3--3--3--3--3--7--7--7--7--7--7--7--7--7--7--7--7--7--7--7--7-|
|-3--3--3--3--3--3--3--3--3--3--3--3--3--3--3--3--5--5--5--5--5--5--5--5--5--5--5--5--5--5--5--5-|
|-1--1--1--1--1--1--1--1--1--1--1--1--1--1--1--1-------------------------------------------------|
|Guitar 3
|
|------------------------------------------------------------------------------------------------|
|13-13-13-13-11-11-11-11-10-10-10-10-11-11-11-11-13-13-13-13-11-11-11-11-10-10-10-10-11-11-11-11-|
|------------------------------------------------------------------------------------------------|
|------------------------------------------------------------------------------------------------|
|------------------------------------------------------------------------------------------------|
|------------------------------------------------------------------------------------------------|
|Guitar 4

|-8--8--8--8--8--8--8--8--8--8--8--8--8--8--8--8--8--8--8--8--8--8--8--8--8--8--8--8--8--8--8--8-|
|-8--8--8--8--8--8--8--8--8--8--8--8--8--8--8--8--8--8--8--8--8--8--8--8--8--8--8--8--8--8--8--8-|
|-9--9--9--9--9--9--9--9--9--9--9--9--9--9--9--9--9--9--9--9--9--9--9--9--9--9--9--9--9--9--9--9-|
|10-10-10-10-10-10-10-10-10-10-10-10-10-10-10-10-10-10-10-10-10-10-10-10-10-10-10-10-10-10-10-10-|
|10-10-10-10-10-10-10-10-10-10-10-10-10-10-10-10-10-10-10-10-10-10-10-10-10-10-10-10-10-10-10-10-|
|-8--8--8--8--8--8--8--8--8--8--8--8--8--8--8--8--8--8--8--8--8--8--8--8--8--8--8--8--8--8--8--8-|
|Guitar 3
|
|------------------------------------------------------------------------------------------------|
|13-13-13-13-11-11-11-11-10-10-10-10-11-11-11-11-13-13-13-13-11-11-11-11-10-10-10-10-11-11-11-11-|
|------------------------------------------------------------------------------------------------|
|------------------------------------------------------------------------------------------------|
|------------------------------------------------------------------------------------------------|
|------------------------------------------------------------------------------------------------|
|Guitar 4


Bridge
|3-3-3-3-3-3-3-3-10-10-10-10-10-10-10-10-12-12-12-12-12-12-12-12--8--8--8--8--8--8--8--8-|
|3-3-3-3-3-3-3-3-10-10-10-10-10-10-10-10-12-12-12-12-12-12-12-12--8--8--8--8--8--8--8--8-|
|4-4-4-4-4-4-4-4-11-11-11-11-11-11-11-11-13-13-13-13-13-13-13-13--9--9--9--9--9--9--9--9-|
|5-5-5-5-5-5-5-5-12-12-12-12-12-12-12-12-14-14-14-14-14-14-14-14-10-10-10-10-10-10-10-10-|
|5-5-5-5-5-5-5-5-12-12-12-12-12-12-12-12-14-14-14-14-14-14-14-14-10-10-10-10-10-10-10-10-|
|3-3-3-3-3-3-3-3-10-10-10-10-10-10-10-10-12-12-12-12-12-12-12-12--8--8--8--8--8--8--8--8-|
|Guitar 3
|
|----------------------------------------------------------------------------------------|
|----------------------------------------------------------------------------------------|
|7-7-7-7-5-5-5-5-------------------------------------------------------------------------|
|-----------------9--9--9--9--7--7--7--7--5--5--5--5-------------------------------------|
|-----------------------------------------------------7--7--7--7--5--5--5--5--5--5--5--5-|
|----------------------------------------------------------------------------------------|
|Guitar 4

|3-3-3-3-3-3-3-3-10-10-10-10-10-10-10-10-12-12-12-12-12-12-12-12--8--8--8--8--8--8--8--8-|
|3-3-3-3-3-3-3-3-10-10-10-10-10-10-10-10-12-12-12-12-12-12-12-12--8--8--8--8--8--8--8--8-|
|4-4-4-4-4-4-4-4-11-11-11-11-11-11-11-11-13-13-13-13-13-13-13-13--9--9--9--9--9--9--9--9-|
|5-5-5-5-5-5-5-5-12-12-12-12-12-12-12-12-14-14-14-14-14-14-14-14-10-10-10-10-10-10-10-10-|
|5-5-5-5-5-5-5-5-12-12-12-12-12-12-12-12-14-14-14-14-14-14-14-14-10-10-10-10-10-10-10-10-|
|3-3-3-3-3-3-3-3-10-10-10-10-10-10-10-10-12-12-12-12-12-12-12-12--8--8--8--8--8--8--8--8-|
|Guitar 3
|
|----------------------------------------------------------------------------------------|
|----------------------------------------------------------------------------------------|
|7-7-7-7-5-5-5-5-------------------------------------------------------------------------|
|-----------------9--9--9--9--7--7--7--7--5--5--5--5-------------------------------------|
|-----------------------------------------------------7--7--7--7--5--5--5--5--5--5--5--5-|
|----------------------------------------------------------------------------------------|
|Guitar 4


Final Chorus
|3--3--3--3--3--3--3--3--3--3--3--3--3--3--3--3--------------------------------------------------|
|3--3--3--3--3--3--3--3--3--3--3--3--3--3--3--3--------------------------------------------------|
|4--4--4--4--4--4--4--4--4--4--4--4--4--4--4--4--9--9--9--9--9--9--9--9--9--9--9--9--9--9--9--9--|
|5--5--5--5--5--5--5--5--5--5--5--5--5--5--5--5--7--7--7--7--7--7--7--7--7--7--7--7--7--7--7--7--|
|5--5--5--5--5--5--5--5--5--5--5--5--5--5--5--5--7--7--7--7--7--7--7--7--7--7--7--7--7--7--7--7--|
|3--3--3--3--3--3--3--3--3--3--3--3--3--3--3--3--------------------------------------------------|
|Guitar 3
|
|------------------------------------------------------------------------------------------------|
|15-15-15-15-13-13-13-13-12-12-12-12-13-13-13-13-15-15-15-15-13-13-13-13-12-12-12-12-13-13-13-13-|
|------------------------------------------------------------------------------------------------|
|------------------------------------------------------------------------------------------------|
|------------------------------------------------------------------------------------------------|
|------------------------------------------------------------------------------------------------|
|Guitar 4

|10-10-10-10-10-10-10-10-10-10-10-10-10-10-10-10-10-10-10-10-10-10-10-10-10-10-10-10-10-10-10-10-|
|10-10-10-10-10-10-10-10-10-10-10-10-10-10-10-10-10-10-10-10-10-10-10-10-10-10-10-10-10-10-10-10-|
|11-11-11-11-11-11-11-11-11-11-11-11-11-11-11-11-11-11-11-11-11-11-11-11-11-11-11-11-11-11-11-11-|
|12-12-12-12-12-12-12-12-12-12-12-12-12-12-12-12-12-12-12-12-12-12-12-12-12-12-12-12-12-12-12-12-|
|12-12-12-12-12-12-12-12-12-12-12-12-12-12-12-12-12-12-12-12-12-12-12-12-12-12-12-12-12-12-12-12-|
|10-10-10-10-10-10-10-10-10-10-10-10-10-10-10-10-10-10-10-10-10-10-10-10-10-10-10-10-10-10-10-10-|
|Guitar 3
|
|------------------------------------------------------------------------------------------------|
|15-15-15-15-13-13-13-13-12-12-12-12-13-13-13-13-15-15-15-15-13-13-13-13-12-12-12-12-13-13-13-13-|
|------------------------------------------------------------------------------------------------|
|------------------------------------------------------------------------------------------------|
|------------------------------------------------------------------------------------------------|
|------------------------------------------------------------------------------------------------|
|Guitar 4

|3--3--3--3--3--3--3--3--3--3--3--3--3--3--3--3--------------------------------------------------|
|3--3--3--3--3--3--3--3--3--3--3--3--3--3--3--3--------------------------------------------------|
|4--4--4--4--4--4--4--4--4--4--4--4--4--4--4--4--9--9--9--9--9--9--9--9--9--9--9--9--9--9--9--9--|
|5--5--5--5--5--5--5--5--5--5--5--5--5--5--5--5--7--7--7--7--7--7--7--7--7--7--7--7--7--7--7--7--|
|5--5--5--5--5--5--5--5--5--5--5--5--5--5--5--5--7--7--7--7--7--7--7--7--7--7--7--7--7--7--7--7--|
|3--3--3--3--3--3--3--3--3--3--3--3--3--3--3--3--------------------------------------------------|
|Guitar 3
|
|------------------------------------------------------------------------------------------------|
|15-15-15-15-13-13-13-13-12-12-12-12-13-13-13-13-15-15-15-15-13-13-13-13-12-12-12-12-13-13-13-13-|
|------------------------------------------------------------------------------------------------|
|------------------------------------------------------------------------------------------------|
|------------------------------------------------------------------------------------------------|
|------------------------------------------------------------------------------------------------|
|Guitar 4

|10-10-10-10-10-10-10-10-10-10-10-10-10-10-10-10-10-10-10-10-10-10-10-10-10-10-10-10-10-10-10-10-|
|10-10-10-10-10-10-10-10-10-10-10-10-10-10-10-10-10-10-10-10-10-10-10-10-10-10-10-10-10-10-10-10-|
|11-11-11-11-11-11-11-11-11-11-11-11-11-11-11-11-11-11-11-11-11-11-11-11-11-11-11-11-11-11-11-11-|
|12-12-12-12-12-12-12-12-12-12-12-12-12-12-12-12-12-12-12-12-12-12-12-12-12-12-12-12-12-12-12-12-|
|12-12-12-12-12-12-12-12-12-12-12-12-12-12-12-12-12-12-12-12-12-12-12-12-12-12-12-12-12-12-12-12-|
|10-10-10-10-10-10-10-10-10-10-10-10-10-10-10-10-10-10-10-10-10-10-10-10-10-10-10-10-10-10-10-10-|
|Guitar 3
|
|------------------------------------------------------------------------------------------------|
|15-15-15-15-13-13-13-13-12-12-12-12-13-13-13-13-15-15-15-15-13-13-13-13-12-12-12-12-13-13-13-13-|
|------------------------------------------------------------------------------------------------|
|------------------------------------------------------------------------------------------------|
|------------------------------------------------------------------------------------------------|
|------------------------------------------------------------------------------------------------|
|Guitar 4


Outro
|------------------------------------------------------------------------------------|-3~-----|
|------------------------------------------------------------------------------------|-3~-----|
|------12---------12---------12----------12----------12-12---------------12-12-------|-4~-----|
|---10---------10---------10----------10---------10----------10------10---------10---|-5~-----|
|10-------10-8-------8---------------------------------------------------------------|-5~-----|
|----------------------12-------12-10-------10-8----------------8-8----------------8-|-3~-----|
|Guitar 1
|
|------------------------------------------------------------------------------------|--------|
|13~--(fade out)---------------------------------------------------------------------|--------|
|------------------------------------------------------------------------------------|--------|
|------------------------------------------------------------------------------------|--------|
|------------------------------------------------------------------------------------|--------|
|------------------------------------------------------------------------------------|--------|
|Guitar 4

            
            
Suggest correction
Creating personal tab
Creating personal tab
You can edit any tab online and save it as your Personal.

You can edit, replace or remove any tab part or add personal notes – all changes will be seen only by you.

Personal tabs can be accessed anytime from any device, even offline.
Learn more »
Give kudos to tab author, rate the tab!
1 2 3 4 5
comments
print report bad tab
1 comment total.
0 reply
jakob.roose 10 Apr 18, 2017 02:50 PM

E//-----------------------------------------------------------------------------
B//-----------------------------------------------------------------------------
G//-----10--------10--------10-----------10------10-10------10----10-10---10----
D//--10--------10--------10-----------10---------10-10------10----10-10---10----
A//8-------8-7-------7----------------------------------------------------------
E//--------------------10---------10-8--------8-6----------6---8-6------6-------

guest
You may want to rate the tab now too:
select rating
Wanna post a correction for this tab? Suggest correction