Oops, an error
Loading. Please wait.

Glimmande Nymf Tab

version 1
version 1

Whole song

22,203 views 30 this week
no commentswrite comment
1 2 3 4 5
x 8
add to favorites
launch autoscroll
font size
0
reset
how to read this tab
guitar tuner
Autoscroll
slow
fast
+/-
esc
set tempo
stop
Help us to improve Ultimate-Guitar.com Take our survey!
×
                  Fred Åkerström - Glimmande nymf
          EPISTEL #72 Carl Michael Bellman (1740 - 1795)

C         G     AM         C
Glimmande nymf, blixtrande öga,

C        F     C            G
svävande hamn  på bolstrarna höga,


        C
menlösa styrka,

G               C
kom, kom nu att dyrka


EM  F   G                  AM
vid ett smalt och utsläckt ljus


EM  F   G    F   G      C
sömnens gud, vår Morfeus!


AM        Em7             AM
Luckan ren stängd, porten tillsluten,


         F   C          G
natthuvan ren din hjässa kringknuten;

                  C        G
ren Norströms piskperuk

                  C
den hänger på sin spik.


EM   F     G          AM
Sov, somna in vid min musik! ://:


EM   F     G     F   G    C
Sov, somna in vid min musik! ://:


    C                       G
--------------------------------|
------1----1-----------3----3---|
-----0-0--0-0---------0-0--0-0--|
--------------------------------|
-- 3----3-----------------------|
--------------------3----3------|

   AM              C
--------------------------------|
----1------1--------------------|
---2-2----2-2------0-0-0-0------|
--------------------------------|
-0-------0--------3-2-0---------|
------------------------3-------|

    C                     F
--------------------------------|
------1----1-----------1----1---|
-----0-0--0-0---------2-2--2-2--|
--------------------------------|
-- 3----3-----------------------|
--------------------1----1------|

    C                   G
---------------------------------------------|
------1----1-----------3----3----3-----3-----|
-----0-0--0-0---------0-0--0-0--0-0---0-0----|
---------------------------------------------|
-- 3----3----------------------------2-------|
--------------------3----3-----3-------------|


    C                       G
--------------------------------|
------1----1-----------3----3---|
-----0-0--0-0---------0-0--0-0--|
--------------------------------|
-- 3----3-----------------------|
--------------------3----3------|
     C
---------------|
---------------|
--0-0-0-0------|
---------------|
-3-2-0---------|
-------3-------|


Its like that, i bet u figure out the rest,
Just play the same with the right hand and stick to the chords and it will sound cool.

It my first tab so be nice  ;)
Mvh Jimmy
Suggest correction
comments
print report bad tab
guest
You may want to rate the tab now too:
select rating
Wanna post a correction for this tab? Suggest correction