Oops, an error
Loading. Please wait.

Glimmande Nymf Tab

version 2
version 2

Whole song

2,465 views 1 this week
no commentswrite comment
1 2 3 4 5
2 more votes to show rating
add to favorites
launch autoscroll
font size
0
reset
how to read this tab
guitar tuner
Autoscroll
slow
fast
+/-
esc
set tempo
stop
Help us to improve Ultimate-Guitar.com Take our survey!
×
Author
Artist: Fred Akerstrom
Song: Glimmande nymf (Fredmans epistel n:o 72)
Author: Carl Michael Bellman (1740 - 1795)

e|-----------0---------|-----------0---------|-----------3---------|-----------3---------|
B|-----------1---------|-----------1---------|-----------3---------|-----------3---------|
G|------0---------0----|------0---------0----|------0---------0----|------0---------0----|
D|---------------------|---------------------|---------------------|---------------------|
A|-3-------------------|-3-------------------|-2-------------------|---------------------|
E|---------------------|---------------------|---------------------|-3-------------------|
                         Glim-     mande       nymf,  

e|-----------0---------|-----------0---------|---------------------|---------------------|
B|-----------1---------|-----------1---------|------1---------1----|------1---------0----|
G|------2---------2----|------2---------2----|------0---------0----|------2---------0----|
D|---------------------|---------------------|---------------------|---------------------|
A|-0-------------------|-0-------------------|-3---------2---------|-0-------------------|
E|---------------------|---------------------|---------------------|-----------3---------|
                         bli-      xtrande     o-                    ga,       

e|-----------0---------|-----------0---------|-----------1---------|-----------1---------|
B|-----------1---------|-----------1---------|-----------1---------|-----------1---------|
G|------0---------0----|------0---------0----|------2---------2----|------2---------2----|
D|---------------------|---------------------|-3-------------------|-3-------------------|
A|-3-------------------|-3-------------------|---------------------|---------------------|
E|---------------------|---------------------|---------------------|---------------------|
                         sva-      vande       hamn

e|-----------0---------|-----------0---------|-----------3---------|-----------3---------|
B|-----------1---------|-----------1---------|-----------3---------|-----------3---------|
G|------0---------0----|------0---------0----|------0---------0----|------0---------0----|
D|---------------------|---------------------|---------------------|---------------------|
A|-3-------------------|-3-------------------|-2-------------------|---------------------|
E|---------------------|---------------------|---------------------|-3-------------------|
                  pa     bol-      strarna     hoga, 

e|-----------3---------|-----------3---------|-----------0---------|-----------0---------|
B|-----------3---------|-----------3---------|-----------1---------|-----------1---------|
G|------0---------0----|------0---------0----|------0---------0----|------0---------0----|
D|---------------------|---------------------|---------------------|---------------------|
A|-2-------------------|---------------------|-3-------------------|-3-------------------|
E|---------------------|-3-------------------|---------------------|---------------------|
                         men-     lo-  sa      styrka, 

e|-----------3---------|-----------3---------|---------------------|---------------------|
B|-----------3---------|-----------3---------|------1---------1----|------1---------0----|
G|------0---------0----|------0---------0----|------0---------0----|------2---------0----|
D|---------------------|---------------------|---------------------|---------------------|
A|-2-------------------|---------------------|-3---------2---------|-0-------------------|
E|---------------------|-3-------------------|---------------------|-----------3---------|
             kom,        kom       nu  att    dy-                   rka 

e|---------------------|---------------------|---------------------|---------------------|
B|-----------0---------|-----------0---------|-----------0---------|-----------0---------|
G|------0---------0----|------0---------0----|------0---------0----|------0---------0----|
D|---------------------|---------------------|---------------------|---------------------|
A|---------------------|---------------------|---------------------|-0-------------------|
E|-0-------------------|-1-------------------|-3-------------------|---------------------|
   vid                   ett                   smalt                                och 

e|---------------------|---------------------|-----------0---------|-----------0---------|
B|-----------0---------|------0--------------|-----------1---------|-----------1---------|
G|------0---------0----|------0--------------|------2---------2----|------2---------2----|
D|---------------------|---------------------|---------------------|---------------------|
A|---------------------|-2---------0----2----|-0-------------------|-0-------------------|
E|-3-------------------|---------------------|---------------------|---------------------|
   ut-                   slackt                ljus 

e|---------------------|---------------------|---------------------|---------------------|
B|-----------0---------|-----------0---------|-----------0---------|-----------0---------|
G|------0---------0----|------0---------0----|------0---------0----|------0---------0----|
D|---------------------|---------------------|---------------------|---------------------|
A|---------------------|---------------------|---------------------|-0-------------------|
E|-0-------------------|-1-------------------|-3-------------------|---------------------|
   somn-                 ens                   gud,                                 var 

e|---------------------|---------------------|-----------0---------|---------------------|
B|-----------0---------|-----------0---------|-----------1---------|------1--------------|
G|------0---------0----|------0---------0----|------0---------0----|------0--------------|
D|---------------------|---------------------|---------------------|---------------------|
A|---------------------|---------------------|-3-------------------|-3---------3----2----|
E|-1-------------------|-3-------------------|---------------------|---------------------|
   Mor-                  fe-                   us! 

e|-----------0---------|-----------0---------|-----------0---------|------0--------------|
B|-----------1---------|-----------1---------|-----------3---------|------3--------------|
G|------2---------2----|------2---------2----|------1---------1----|------1--------------|
D|---------------------|---------------------|---------------------|-2---------2---------|
A|-0-------------------|-0-------------------|---------------------|----------------2----|
E|---------------------|---------------------|-0-------------------|---------------------|
                         Luckan         ren    stangd, 

e|-----------0---------|-----------0---------|-----------0---------|-----------0---------|
B|-----------3---------|-----------3---------|-----------1---------|-----------1---------|
G|------1---------1----|------1---------1----|------2---------2----|------2---------2----|
D|---------------------|-2-------------------|---------------------|---------------------|
A|---------------------|---------------------|-0-------------------|-0-------------------|
E|-0-------------------|---------------------|---------------------|---------------------|
                         porten         till-  sluten, 

e|-----------0---------|-----------0---------|-----------1---------|-----------1---------|
B|-----------1---------|-----------1---------|-----------1---------|-----------1---------|
G|------2---------2----|------2---------2----|------2---------2----|------2---------2----|
D|---------------------|---------------------|-3-------------------|-3-------------------|
A|-0-------------------|-0-------------------|---------------------|---------------------|
E|---------------------|---------------------|---------------------|---------------------|
                         natt-     huvan       ren 

e|-----------0---------|-----------0---------|-----------3---------|-----------3---------|
B|-----------1---------|-----------1---------|-----------3---------|-----------3---------|
G|------0---------0----|------0---------0----|------0---------0----|------0---------0----|
D|---------------------|---------------------|---------------------|---------------------|
A|-3-------------------|-3-------------------|-2-------------------|---------------------|
E|---------------------|---------------------|---------------------|-3-------------------|
                  din    hjassa         kring- knuten; 

e|-----------3---------|-----------3---------|-----------0---------|-----------0---------|
B|-----------3---------|-----------3---------|-----------1---------|-----------1---------|
G|------0---------0----|------0---------0----|------0---------0----|------0---------0----|
D|---------------------|---------------------|---------------------|---------------------|
A|-2-------------------|---------------------|-3-------------------|-3-------------------|
E|---------------------|-3-------------------|---------------------|---------------------|
                  ren    Norstroms piskperuk 

e|-----------3---------|-----------3---------|---------------------|---------------------|
B|-----------3---------|-----------3---------|------1---------1----|------1---------0----|
G|------0---------0----|------0---------0----|------0---------0----|------2---------0----|
D|---------------------|---------------------|---------------------|---------------------|
A|-2-------------------|---------------------|-3---------2---------|-0-------------------|
E|---------------------|-3-------------------|---------------------|-----------3---------|
                  den    hanger         pa     sin      spik. 

e|-----------0---------|-----------0---------|-----------0---------|-----------0---------|
B|-----------0---------|-----------0---------|-----------0---------|-----------0---------|
G|------0---------0----|------0---------0----|------0---------0----|------0---------0----|
D|---------------------|---------------------|---------------------|---------------------|
A|---------------------|---------------------|---------------------|-0-------------------|
E|-0-------------------|-1-------------------|-3-------------------|---------------------|
   Sov,                            somna       in                              vid 

e|-----------0---------|---------------------|-----------0---------|-----------0---------|
B|-----------0---------|------0--------------|-----------1---------|-----------1---------|
G|------0---------0----|------0--------------|------2---------2----|------2---------2----|
D|---------------------|---------------------|---------------------|---------------------|
A|---------------------|-2---------0----2----|-0-------------------|-0-------------------|
E|-3-------------------|---------------------|---------------------|---------------------|
   min                   mu-                   sik!

e|-----------0---------|-----------0---------|-----------0---------|-----------0---------|
B|-----------0---------|-----------0---------|-----------0---------|-----------0---------|
G|------0---------0----|------0---------0----|------0---------0----|------0---------0----|
D|---------------------|---------------------|---------------------|---------------------|
A|---------------------|---------------------|---------------------|-0-------------------|
E|-0-------------------|-1-------------------|-3-------------------|---------------------|
   Sov,                            somna       in                              vid 


e|-----------0---------|-----------0---------|-----------0---------|-----------0---------|
B|-----------0---------|-----------0---------|-----------1---------|-----------1---------|
G|------0---------0----|------0---------0----|------0---------0----|------0---------0----|
D|---------------------|---------------------|---------------------|---------------------|
A|---------------------|---------------------|-3-------------------|-3-------------------|
E|-1-------------------|-3-------------------|---------------------|---------------------|
   min                             mu-         sik!
Suggest correction
Give kudos to tab author, rate the tab!
1 2 3 4 5
comments
print report bad tab
guest
You may want to rate the tab now too:
select rating
Wanna post a correction for this tab? Suggest correction