Oops, an error
Loading. Please wait.

Jag Ger Dig Min Morgon Tab

58,852 views 81 this week
1 commentread comment
1 2 3 4 5
excellent!
x 18
add to favorites
launch autoscroll
font size
0
reset
how to read this tab
guitar tuner
Autoscroll
slow
fast
+/-
esc
set tempo
stop
Help us to improve Ultimate-Guitar.com Take our survey!
×
Author
Difficulty
novice
[Intro]
  G                  C                   G
e|-------------------------------------------------------------|
B|-----0-------0-------1-------1-----------0-------0-----------|
G|---0---0---0---0---0---0---0---0---0---0---0---0---0---------|
D|-------------------------------------------------------------|
A|-----------------3-------3-----------------------------------|
E|-3-------3----------------------0h2p3---------3--------------|

   C                            G
e|---------------------------------------------------------|
B|----------1-------1-------------0---------0---------0----|
G|--------0---0---0---0---------0---0-----0---0-----0---0--|
D|---------------------------------------------------------|
A|--0h2p3-------3------------------------------------------|
E|-----------------------0h2p3---------3---------3---------|

   G
e|------------------------|
B|------0------------0----|
G|----0---0--------0---0--|
D|------------------------|
A|------------------------|
E|-3---------0h2p3--------|


Walk down from G to Em:

e|-----------|
B|-----------|
G|---0---0---|
D|-----------|
A|-----------|
E|-3---2---0-|


 Chords:
  G           C           Em          D
e|-----------|-----------|-----------|-----------|
B|-----0-----|-----1-----|-----0-----|-----3-----|
G|---0---0---|---0---0---|---0---0---|---2---2---|
D|-----------|-----------|-----------|-0---------|
A|-----------|-3---------|-----------|-----------|
E|-3---------|-----------|-0---------|-----------|


[Verse 1]
G                         C    G
Återigen gryr dagen vid din bleka skuldra
                            C     G
Genom frostig glas syns solen som en huldra
Em                           D
Ditt hår det flyter över hela kudden
 
[Chorus]
         G                   C
Om du var vaken skulle jag ge dig
G                          C
Allt det där jag aldrig ger dig
Em                    C    D
Men du, jag ger dig min morgon
               G
Jag ger dig min dag
 
[Verse 2]
(the same chords as in the Verse 1)
Vår gardin, den böljar svagt där solen strömmar
Långt bakom ditt öga svinner nattens drömmar
Du drömmer om nåt fint, jag ser du småler

[Chorus]
         G                   C
Om du var vaken skulle jag ge dig
G                          C
Allt det där jag aldrig ger dig
Em                    C    D
Men du, jag ger dig min morgon
               G
Jag ger dig min dag
  
[Verse 3]
Utanför vårt fönster hör vi markends sånger
Som ett rastlöst barn om våren dagen kommer
Lyssna till den sång som jorden sjunger
 
[Chorus]
         G                   C
Om du var vaken skulle jag ge dig
G                          C
Allt det där jag aldrig ger dig
Em                    C    D
Men du, jag ger dig min morgon
               G
Jag ger dig min dag
 
[Verse 4]
Likt en sländas spröda vinge ögat skälver
Solens smälta i ditt hår kring pannan välver
Du, jag tror vi flyr rakt in i solen

[Chorus/outro]
(the same as the other Chorus)
Om du var vaken skulle jag ge dig
Allt det där jag aldrig ger dig
Men du, jag ger dig min morgon
Jag ger dig min dag
Men du, jag ger dig min morgon
Jag ger dig min dag

 
************************************

| h  Hammer-on
| p  Pull-off

************************************
Suggest correction
comments
print report bad tab
1 comment total.
+1 reply
torb 10 wrote on July 29 2008, 07:52 pm

Thanks for tabbing this!

guest
You may want to rate the tab now too:
select rating
Please do not post tabs as comments. Select "correction" instead!