Oops, an error
Loading. Please wait.

Oh Sweet Lorraine tab

2,008 views 1 this week
2 commentsread comments
1 2 3 4 5
x 3
add to favorites
×
Save as Personal and add changes to this tab that will be seen only by you. Learn more ›
×
You can save this tab as Personal to edit and correct it or add notes. All changes will be seen only by you. Learn more »
launch autoscroll
font size
0
reset
how to read this tab
guitar tuner
edit
Autoscroll
slow
fast
+/-
esc
set tempo
stop
Author
Difficulty
Verses:

   G                       C                       Am                      D

E--------------------3-----------------------0-----------------------0-----------------------2---------
B--------3--------------0--------1--------------1--------1--------------1--------3--------------3------
G-----0-----0-----0-----------0-----0-----0-----------2-----2-----2-----------2-----2-----2------------
D--------------------------------------------------------------------------0-----------0---------------
A--------------------------3-----------3-----------0-----------0---------------------------------------
E--3-----------3---------------------------------------------------------------------------------------


E--------------------3-----------------------0-----------------------0-----------------------2---------
B--------3--------------0--------1--------------1--------1--------------1--------3--------------3------
G-----0-----0-----0-----------0-----0-----0-----------2-----2-----2-----------2-----2-----2------------
D--------------------------------------------------------------------------0-----------0---------------
A--------------------------3-----------3-----------0-----------0---------------------------------------
E--3-----------3---------------------------------------------------------------------------------------

Transition to Chorus:

   D

E--3---3----3----3-----3--7----------------------------------------------------------------------------
B---------2----2----2-----7----------------------------------------------------------------------------
G-------------------------5----------------------------------------------------------------------------
D------------------------------------------------------------------------------------------------------
A------------------------------------------------------------------------------------------------------
E------------------------------------------------------------------------------------------------------

Chorus:

   Am                      C                       D                      

E--------------------0-----------------------0---------------------------------------------------------
B--------1--------------0--------1--------------1--------3-----------3-----------3-----------3---------
G-----2-----2-----2-----------0-----0-----0-----------2-----2-----2-----2-----2-----2-----2-----2------
D--------------------------------------------------0-----------0-----------0-----------0---------------
A--0-----------0-----------3-----------3---------------------------------------------------------------
E------------------------------------------------------------------------------------------------------

   Am                      C                       D                      

E--------------------0-----------------------0--------------2--0--2--0--2--2--0--2--2--3--7------------
B--------1--------------0--------1--------------1--------3-----------------------------3--5------------
G-----2-----2-----2-----------0-----0-----0-----------2--------------------------------2--5------------
D--------------------------------------------------0-----------------------------------0---------------
A--0-----------0-----------3-----------3---------------------------------------------------------------
E------------------------------------------------------------------------------------------------------

            
            
Suggest correction
Creating personal tab
Creating personal tab
You can edit any tab online and save it as your Personal.

You can edit, replace or remove any tab part or add personal notes – all changes will be seen only by you.

Personal tabs can be accessed anytime from any device, even offline.
Learn more »
Give kudos to tab author, rate the tab!
1 2 3 4 5
comments
print report bad tab
2 comments total.
0 reply
anniwndrrr 10 Dec 20, 2013 10:34 AM

was confused at first... since you wrote it down EADGBE instead of EBDGAE

0 reply
barnzilla 33 Mar 29, 2014 07:37 AM, edited at 11:46 am

Thanks, anniwndrrr. I have updated the tab and also made it less confusing by writing it EADGBE.

guest
You may want to rate the tab now too:
select rating
Wanna post a correction for this tab? Suggest correction