Oops, an error
Loading. Please wait.

Alaala Tab

19,017 views 42 this week
no commentswrite comment
1 2 3 4 5
please rate
add to favorites
launch autoscroll
font size
0
reset
how to read this tab
guitar tuner
Tab Pro tools
  • play this tab
  • loop segment
  • change instrument
  • show fretboard
  • metronome
×
Best way to learn
"Alaala"
Autoscroll
slow
fast
+/-
esc
set tempo
stop
Contributor
===============================================================================
                         Alaala - Freddie Aguilar
-------------------------------------------------------------------------------
Tabbed by: stephanie_7368
Email:     stephanie_7368@yahoo.com

NOTE: - Binase ko ang pagtab dito:
          http://www.youtube.com/watch?v=hEX75K6PIyA&feature=related
      - Kung gusto niyo yung version na kagaya nung mga nag-cover sa youtube,
        Am F G and ginamit nila. Masmataas ng isang fret.
      - Yung mga first parts lang ang tinab ko since paulit-ulit lang naman.
        Just use your plucking preferences to make it simple.


*CAPO ON 4TH FRET

Kung walang capo, replace Em - G#m
                          D  - F#
                          C  - E

INTRO
     Em                                Em
     1 * * * 2 * * * 3 * * * 4 * * *   1 * * * 2 * * * 3 * * * 4 * * *
  e|-----------------0---------------|-----------------0---------------|
  B|---------0---3-------0-------0---|---------0---3-------0-------0---|
  G|-------------0-----------0-------|-------------0-----------0-------|
  D|-----2---------------------------|-----2---------------------------|
  A|---------------------------------|---------------------------------|
  E|-0-------------------------------|-0-------------------------------|

     Em                                D
     1 * * * 2 * * * 3 * * * 4 * * *   1 * * * 2 * * * 3 * * * 4 * * *
  e|-----------------0---------------|-------------0---2---0-----------|
  B|---------0---3-------0-------0---|---------3-------3-------3-------|
  G|-------------0-----------0-------|-----2-----------2-----------0---|
  D|-----2---------------------------|-0---------------0---------------|
  A|---------------------------------|---------------------------------|
  E|-0-------------------------------|---------------------------------|

     C                                 Em
     1 * * * 2 * * * 3 * * * 4 * * *   1 * * * 2 * * * 3 * * * 4 * * *
  e|-----------------0---------------|-----------------0---------------|
  B|---------1---3-------1-------0---|---------0---3-------0-------0---|
  G|-----0-------------------0---0---|-------------0-----------0---0---|
  D|-2-------------------------------|-----2---------------------------|
  A|-3-------------------------------|---------------------------------|
  E|---------------------------------|-0-------------------------------|

     Em                                Em
     1 * * * 2 * * * 3 * * * 4 * * *   1 * * * 2 * * * 3 * * * 4 * * *
  e|-----------------0---------------|-----------------0---------------|
  B|---------0---3-------0-------0---|---------0---3-------0-------0---|
  G|-------------0-----------0---0---|-------------0-----------0-------|
  D|-----2---------------------------|-----2---------------------------|
  A|---------------------------------|---------------------------------|
  E|-0-------------------------------|-0-------------------------------|

     D                                 C
     1 * * * 2 * * * 3 * * * 4 * * *   1 * * * 2 * * * 3 * * * 4 * * *
  e|-------------0---2---0-----------|-----------------0---------------|
  B|---------3-------3-------3-------|---------1---3-------1-------0---|
  G|-----2-----------2-----------0---|-----0-------------------0---0---|
  D|-0---------------0---------------|-2-------------------------------|
  A|---------------------------------|-3-------------------------------|
  E|---------------------------------|---------------------------------|

     Em                                Em
     1 * * * 2 * * * 3 * * * 4 * * *   1 * * * 2 * * * 3 * * * 4 * * *
  e|-----------------0---------------|-----------------0---------------|
  B|---------0---3-------0-------0---|---------0---3-------0-------0---|
  G|-------------0-----------0-------|-------------0-----------0-------|
  D|-----2---------------------------|-----2---------------------------|
  A|---------------------------------|---------------------------------|
  E|-0-------------------------------|-0-------------------------------|


CHORUS

     Em                                D
     1 * * * 2 * * * 3 * * * 4 * * *   1 * * * 2 * * *
  e|-----------------0---------------|-----2-------0---|
  B|---------0---3-------0-------0---|---------3-------|
  G|-------------0-----------0-------|-2---------------|
  D|-----2---------------------------|-0---------------|
  A|---------------------------------|-----------------|
  E|-0-------------------------------|-----------------|
             a- kin pang         na-   a-  a-  la-

     Em                                Em
     1 * * * 2 * * * 3 * * * 4 * * *   1 * * * 2 * * * 3 * * * 4 * * *
  e|-----------------0---------------|-----------------0---------------|
  B|---------0---3-------0-------0---|---------0---3-------0-------0---|
  G|-------------0-----------0---0---|-------------0-----------0---0---|
  D|-----2---------------------------|-----2---------------------------|
  A|---------------------------------|---------------------------------|
  E|-0-------------------------------|-0-------------------------------|
    la

     C                                 D
     1 * * * 2 * * * 3 * * * 4 * * *   1 * * * 2 * * * 3 * * * 4 * * *
  e|-----------------0---------------|-------------0---2---0-----------|
  B|---------1---3-------1-------0---|---------3-------3-------3-------|
  G|-----0-------------------0---0---|-----2-----------2-----------0---|
  D|-2-------------------------------|-0---------------0---------------|
  A|-3-------------------------------|---------------------------------|
  E|---------------------------------|---------------------------------|
                 noong       si  a-    ma'y        na- bu- bu-hay

  Em                          D
  pa    ang sabi niya'y, 'Freddie
  C                   Em
    mag-aral kang mabuti
  C            D              Em
    tulungan mo ang 'yong sarili

VERSES
                     D          Em
  ang nais niya'y hindi nasunod
  C              D            Em
    'pagkat ako'y may dahilan
                   D
  ang nais ko'y umawit
  C                 Em
    tumugtog ng gitara
  C         D                Em
   at ako'y kanyang pinagbigyan


               D     Em
  at kami'y nagkahiwalay
  C              D            Em
    'pagkat ako'y nangibang-bayan
                      D
  at nang kami'y magkita
  C                 Em
    siya ay bangkay na
  C           D           Em
    pumanaw na ang aking ama

ADLIB
  Em D C Em
  Em D C Em

VERSE
  Em               D     Em
     saan man siya naroroon
  C          D                 Em
    mga payo niya'y tataglayin ko
  Em             D
     ang kanyang alaala
  C                   Em
    ay lalagi sa isip ko
  C       D           Em
    kahit siya'y wala na

(repeat CHORUS)

  C            D              Em
    tulungan mo ang 'yong sarili
  C            D              Em
    tulungan mo ang 'yong sarili
  C            D              Em...
    tulungan mo ang 'yong sarili...
===============================================================================
comments
We did not receive enough feedback on this tab! Please rate:
print report bad tab
1 2 3 4 5
I want to post or [tab]
guest
You may want to rate the tab now too:
select rating
Please do not post tabs as comments. Select "correction" instead!