Oops, an error
Loading. Please wait.

Red Clay Bass Tab

version 2
version 2

Whole song

677 views 15 this week
no commentswrite comment
1 2 3 4 5
3 more votes to show rating
add to favorites
launch autoscroll
font size
0
reset
guitar tuner
Autoscroll
slow
fast
+/-
esc
set tempo
stop
Help us to improve Ultimate-Guitar.com Take our survey!
×
Difficulty
advanced
AS WRITTEN BY FREDDIE HUBBARD
PLAY INTRO TWICE
THEN MAIN RIFF THROUGH SONG

INTRO

G|---------------------------------------------|
D|-----5---5-------3-3--------6---8----10---12-|
A|----5--5--5-----3---3------6---8---10---12---|
E|--3-----------1-----------4---6---8---10-----|


MAIN RIFF

G|---------------------------------------------|
D|-----5---5-------3-3--------6---8----10---12-|
A|----5--5--5-----3---3------6---8---10---12---|
E|--3-----------1-----------4---6---8---10-----|
Suggest correction
Give kudos to tab author, rate the tab!
1 2 3 4 5
comments
print report bad tab
guest
You may want to rate the tab now too:
select rating
Wanna post a correction for this tab? Suggest correction