Oops, an error
Loading. Please wait.

Red Clay bass

version 4
version 4

Whole song

481 views 6 this week
no commentswrite comment
1 2 3 4 5
3 more votes to show rating
add to favorites
×
Save as Personal and add changes to this tab that will be seen only by you. Learn more ›
×
You can save this tab as Personal to edit and correct it or add notes. All changes will be seen only by you. Learn more »
launch autoscroll
font size
0
reset
guitar tuner
edit
Autoscroll
slow
fast
+/-
esc
set tempo
stop
Author
About this tab version
Has both corrected main part, and the root notes to hit for the 10 minute long improv section. Tabbed the way Ron Carter played it. Was this info helpful? Yes No
off of this version https://www.youtube.com/watch?v=wA1ZelIbUfI    main riff starts at 1:12
                                                                   improv starts at 2:25


Song is about 140bpm

G----------------------------------------------------------------------
D----------------------------------------------------------------------  INTRO:
A-----4--------------2-----------------5------7----------9--11---------  This part is improvised, these are 
E----------------------------------------------------------------------  Root notes

G----------6--6----6-----------4-4-------7-------9-------11------13-----||
D-------6------------4-------4---------7-------9------11------13-------*|| Main tune
A----4---------------------2---------5-------7------9-------11---------*||
E-----------------------------------------------------------------------||

G---------------------------------------||
D---------------2----------------------*|| This part is improvised, these are the root notes to hit
A-4--------2---------0-------6---------*||
E---------------------------------4-----||


Song repeats between these two parts

            
            
Suggest correction
Creating personal tab
Creating personal tab
You can edit any tab online and save it as your Personal.

You can edit, replace or remove any tab part or add personal notes – all changes will be seen only by you.

Personal tabs can be accessed anytime from any device, even offline.
Learn more »
Give kudos to tab author, rate the tab!
1 2 3 4 5
comments
print report bad tab
guest
You may want to rate the tab now too:
select rating
Wanna post a correction for this tab? Suggest correction