Oops, an error
Loading. Please wait.

Hide Away Tab

version 1
version 1

Whole song

Interactive

49,314 views 165 this week
1 commentread comment
1 2 3 4 5
accurate
x 9
add to favorites
launch autoscroll
font size
0
reset
how to read this tab
guitar tuner
Tab Pro tools
  • play this tab
  • loop segment
  • change instrument
  • show fretboard
  • metronome
×
Best way to learn
"Hide Away"
Autoscroll
slow
fast
+/-
esc
set tempo
stop
Contributor
----------------------------------------------------------------------------
                             Hide Away - Freddie King
----------------------------------------------------------------------------
Tabbed by: Joe a.k.a. The Young Page
Email: bustamoves@swbell.net

Email me if u have any questions. I'm sure this is correct; I've even played it live this way!

Tuning: Standard

e|--------0--2/4-------------0--2/4---2p0---0-----------0-----0------0-----|
B|-0--0h2------------0--0h2---------------2------0--0h2---0h2----0h2-------|
G|-------------------------------------------------------------------------|
D|-------------------------------------------------------------------------|
A|-----------------------------------------------------------------------0-|
E|-------------------------------------------------------------------------|

e|--------0-2/4---2p0----0------------0-----0-----0--2-2-2-2-2/4-----------|
B|--0-0h2--------------2-----0--0h2-----0h2---0h2--------------------------|
G|-------------------------------------------------------------------------|
D|-------------------------------------------------------------------------|
A|-------------------------------------------------------------------------|
E|-------------------------------------------------------------------------|

e|-------0-----0------0---0-------------0----------------------0-----------|
B|-0-0h2---0h2----0h2----------------------3--0----------------------------|
G|----------------------------2--0h1------------2-0--0h2p2------------2----|
D|----------------------------------------------------------2--------------|
A|----------------------------------------------------------------0-2------|
E|-------------------------------------------------------------------------|

e|-------0---------------------0-----0-----0---0----------------0----------|
B|-0-0h2---0h2p0h2p0h2--0--0h2---0h2---0h2---------------0--0h2------------|
G|-----------------------------------------------2--0h1--------------------|
D|-------------------------------------------------------------------------|
A|-------------------------------------------------------------------------|
E|-------------------------------------------------------------------------|

e|--------0--2/4--2p0----0--0----------0------------0--2-2-2-2-2/4---------|
B|-0--0h2--------------2--------------------0---0h2------------------------|
G|-----------------------------0h1-----------------------------------------|
D|----------------------------------2--------------------------------------|
A|-------------------------------------------------------------------------|
E|-------------------------------------------------------------------------|

e|-------0-----0------0---0-------------0----------------------0-----------|
B|-0-0h2---0h2----0h2----------------------3--0----------------------------|
G|----------------------------2--0h1------------2-0--0h2p2------------2----|
D|----------------------------------------------------------2--------------|
A|----------------------------------------------------------------0-2------|
E|-------------------------------------------------------------------------|

e|-------------------------------------------------------------------------|
B|-------------------------------------------------------------------------|
G|-------------------------------------------------------------------------|
D|-2--------------------2--------------------------------2--5-2-4-2--2-----|
A|--------2--5--2--4--2--------2--5--2--4--2--------0--4-------------------|
E|---0--4-----------------0--4----------------0-3-4------------------------|

e|-------------------------------------------------------------------------|
B|-------------------------------------------------------------------------|
G|---------------------------------2----1----------------------------------|
D|---------------------------1--4----4----4-2------------------2-----------|
A|-------2--5--2--4--------2----------------------2--5-2--4--2-------------|
E|--0--4-------------0-3-4--------------------0-4--------------------------|


   8 TIMES       4 TIMES         4 TIMES
e|------------|--------------|-------------|-------------------------------|
B|------------|--------------|-------------|-------------------------------|
G|------------|--------------|-------------|---------------1---------------|
D|------------|--2-2------2--|-------------|------1-1--4-4---4--1----------|
A|-2-2------2-|--0-0--3h4----|--2-2------2-|--2-2-------------------0--0---|
E|-0-0--3h4---|--------------|--0-0--3h4---|-------------------------------|

e|----------------------------------------------2-2-2----------------------|
B|----------------------------------------------X-X-X----------------------|
G|----------------------------------------------2-2-2----------------------|
D|-------2--2--4--2-----------------------------1-1-1----------------------|
A|-4--4-------------4-------------0-1--0--1-----2-2-2----------------------|
E|---------------------0-0--3--4------------0------------------------------|


       VERY FAST
e|--12-12-12-12-12-12-12-----12-12-12-12-12-12-12---12--9--7---------------|
B|---9--9--9--9--9--9--9------9--9--9--9--9--9--9--------------------------|
G|--11-11-11-11-11-11-11-----11-11-11-11-11-11-11---12--9--7---------------|
D|--12-12-12-12-12-12-12-----12-12-12-12-12-12-12--------------------------|
A|-------------------------------------------------------------------------|
E|-------------------------------------------------------------------------|

                                        4 TIMES   4 TIMES
e|-4/2--0--4/2--0---4/2--0----4/2--0--|---------|----------|----------0----|
B|------------------------------------|---------|----------|---0--0h2------|
G|-4/2--0--4/2--0---4/2--0----4/2--0--|---------|----------|---------------|
D|------------------------------------|-2-2-4-4-|----------|---------------|
A|------------------------------------|-0-0-0-0-|--2-2-4-4-|---------------|
E|------------------------------------|---------|--0-0-0-0-|---------------|

e|--2-2-2-2-2/4------------------------------------------------------------|
B|-------------------------------------------------------------------------|
G|-------------------------------------------------------------------------|
D|-------------------------------------------------------------------------|
A|-------------------------------------------------------------------------|
E|-------------------------------------------------------------------------|

e|-------0-----0------0---0-------------0----------------------0-----------|
B|-0-0h2---0h2----0h2----------------------3--0----------------------------|
G|----------------------------2--0h1------------2-0--0h2p2------------2----|
D|----------------------------------------------------------2--------------|
A|----------------------------------------------------------------0-2------|
E|-------------------------------------------------------------------------|

    4 TIMES            2 TIMES           2 TIMES
e|----------------|------------------|-----------------|-------------------|
B|----------------|------------------|-----------------|-------------------|
G|----------------|------------------|-----------------|-------------------|
D|----------------|-2-2--------------|-----------------|--1-1-1-1-1-1-1----|
A|-2-2------------|-0-0-3-0-4-0-5-4--|-2-2-------------|--2-2-2-2-2-2-2----|
E|-0-0-3-0-4-0-5-4|------------------|-0-0-3-0-4-0-5-4-|-------------------|

e|-------------------------------------------------------------------------|
B|-------------------------------------------------------------------------|
G|-------------------------------------------------------------------------|
D|-2-2-2-2-2-2-2-------------------1-1-1-----------------------------------|
A|-0-0-0-0-0-0-0--2-2--------------2-2-2-----------------------------------|
E|----------------0-0-3-0-4-0-5-4------------------------------------------|

e|--------0--2/4-------------0--2/4---2p0---0-----------0-----0------0-----|
B|-0--0h2------------0--0h2---------------2------0--0h2---0h2----0h2-------|
G|-------------------------------------------------------------------------|
D|-------------------------------------------------------------------------|
A|-----------------------------------------------------------------------0-|
E|-------------------------------------------------------------------------|

e|--------0-2/4---2p0----0----------0--2-2-2-2-2/4---------0-----0-----0---|
B|--0-0h2--------------2-----0--0h2-----------------0--0h2---0h2---0h2-----|
G|-------------------------------------------------------------------------|
D|-------------------------------------------------------------------------|
A|-------------------------------------------------------------------------|
E|-------------------------------------------------------------------------|

e|--/4--0-----------0--2--2/4----------------------------------------------|
B|---------3--0--3--------------0----2----3--------------------------------|
G|------------------------------1----1----1--------------------------------|
D|------------------------------0----0----0--------------------------------|
A|------------------------------2----2----2--------------------------------|
E|------------------------------0----0----0--------------------------------|

| /  slide up
| \  slide down
| h  hammer-on
| p  pull-off
| ~  vibrato
| +  harmonic
| x  Mute note
============================================================================

comments
print report bad tab
1 comment total.
+1 reply
guitarman48 wrote on November 3 2006, 12:50 pm

Love the way this printed out.

I want to post or [tab]
guest
You may want to rate the tab now too:
select rating
Please do not post tabs as comments. Select "correction" instead!