Oops, an error
Loading. Please wait.

Hide Away Tab

version 2
version 2

Whole song

Interactive

1,380 views 15 this week
no commentswrite comment
1 2 3 4 5
1 last vote to show rating
add to favorites
launch autoscroll
font size
0
reset
how to read this tab
guitar tuner
×
Best way to learn
"Hide Away"
Autoscroll
slow
fast
+/-
esc
set tempo
stop
Author
Difficulty
  follow
intermediate
HIDE AWAY

As recorded by Freddie King
(From the 1961 Album LET'S HIDE AWAY AND DANCE AWAY WITH FREDDIE KING)

Music by Freddie King & Sonny Thompson


Transcribed by Slowhand 


Gtr I (E A D G B E) - 'Freddie King - Electric Guitar w/ light distortion'



  Moderate Shuffle Q=134(8=s8)
  N.C.                 E5                 N.C.                   E5
 4/4
  Gtr I
                       PM--------------|                         PM----------|
           |-3-|                          |-3-|        |-3-|
  H    E E E E E   a E E E E E E E E   Q  E E E a Q  a E E E   E E E E E E E E
|--------------0-|-2s4---------------|--------0-2s4--4s2p0---|-0---------------|
|--------0-0h2---|-------------------|----0h2--------------2-|-----------------|
|----------------|-------------------|-----------------------|-----------------|
|----------------|-------------------|-----------------------|-----------------|
|----------------|-----2-4-4-2-2-4-4-|-2---------------------|---2-4-4-2-2-4-4-|
|----------------|-----0-0-0-0-0-0-0-|-0---------------------|---0-0-0-0-0-0-0-|


     N.C.                A5
  PM                     PM---------------
     |-3-| |-3-| |-3-|
  Q  E E E E E E E E E   E E E E E E E E
|--------------0-----0-|-----------------|
|----0h2-0-0h2---0h2---|-----------------|
|----------------------|-----------------|
|----------------------|-2-2-4---5---4-0-|
|-2--------------------|-0-0-0-0-0-0-0-0-|
|-0--------------------|-----------------|


      N.C.                   E5
 ---|                        PM----------|
      |-3-|        |-3-|
  E E E E E a Q  a E E E   E E E E E E E E
|---------0-2s4--4s2p0---|-0---------------|
|-----0h2--------------2-|-0---------------|
|------------------------|-----------------|
|-2-2--------------------|-----------------|
|-0-0--------------------|---2-4-4-2-2-4-0-|
|------------------------|---0-0-0-0-0-0-0-|


     N.C.
  PM
     |-3-| |-3-| |-3-|                 |-3-|   |-3-| |-3-| |-3-| |-3-|
  Q  E E E E E E E E E   E E E E a E E E E E   E E E E E E E E E E E E
|--------0-----0-----0-|-2-2-2-2-2s4-0-2p0---|-----0-----0-----0--------|
|----0h2---0h2---0h2---|-------------------2-|-0h2---0h2---0h2---0---0--|
|----------------------|---------------------|---------------------2----|
|----------------------|---------------------|--------------------------|
|-2--------------------|---------------------|--------------------------|
|-0--------------------|---------------------|--------------------------|


                                                 N.C.
         |3-|       |-3-|               |-3-|
  a E E +E  Q a E E E E E   E E E E E E E E E    H.        +E  E
|-----0-(0)-------0-------|-0---------------0-||-----------------|
|-----------3-------------|-----0-----0-0h2---||-0tr2------(0)-0-|
|-0h1---------2s4---2p0---|-------2-----------||-----------------|
|-----------------------2-|-------------------||-----------------|
|-------------------------|---2---------------||-----------------|
|-------------------------|-------------------||-----------------|


                                E5                N.C.
                                PM------------|               PM--|
  |-3-| |-3-| |-3-| |3|   |-3-|                   |-3-| |-3-| |-3-|
  E E E E E E E E E E Q   E E E E E E E E E   E E E E E E E E E E E
|-----0-----0-----0-----|-------------------|---------2--------------|
|-0h2---0h2---0h2---0---|-----0-------------|-----0h2----------------|
|---------------------2-|-0h1---------------|------------------------|
|-----------------------|-------------------|------------------------|
|-----------------------|-------4-4-2-2-4-4-|-2----------------------|
|-----------------------|-------0-0-0-0-0-0-|-0-0---------0-2-3-3-4--|


  A5                    N.C.
  PM------------------|
                        |-3-|        |-3-|
  E E E E E E E E   E E E E E a Q  a E E E
|-----------------|---------0-2s4--4s2p0---|
|-----------------|-----0h2--------------2-|
|-----------------|------------------------|
|-2-2-4-4-5-5-4-4-|-2-2--------------------|
|-0-0-0-0-0-0-0-0-|-0-0--------------------|
|-----------------|------------------------|


    E5                          N.C.
    PM----|           PM------|
                                |-3-|
  E E E E E E E E   E E E E E E E E E
|-0---------------|-0---------------0-|
|-----------0-----|-------------0h2---|
|-------------2-0-|-------------------|
|-----------------|-------------------|
|---2-4-4-2-------|---2-4-4-2-2-------|
|---0-0-0-0-------|---0-0-0-0-0-------|


                  |-3-|   |-3-| |-3-| |-3-| |-3-|          |3-|       |-3-|
  E E E E a E E a E E E   E E E E E E E E E E E E   a E E +E  Q a E E E E E
|-2-2-2-2-2s4-0-4s2p0---|-----0-----0-----0-------|-----0-(0)-------0-------|
|---------------------2-|-0h2---0h2---0h2---0---0-|-----------3-----3-------|
|-----------------------|---------------------2---|-0h1---------2s4---2p0---|
|-----------------------|-------------------------|-----------------------2-|
|-----------------------|-------------------------|-------------------------|
|-----------------------|-------------------------|-------------------------|


                      E5   N.C.
  E E E E E a Q.      q  E E a Q  E E   E E E E E a Q.     q  E E a Q  E E
|-0----------------||-----------------|------------------|------------------|
|-----0------------||-----------------|------------------|------------------|
|-------2----------||-----------------|------------------|------------------|
|---1-------0h2----||-----------------|-----------0h2----|------------------|
|---2--------------||-2-------------2-|-5-2-4-2----------|---------------2--|
|------------------||-0----0-3h4------|------------------|-0----0-3h4-------|


            PM----|
              |-3-|
  E E E E E E E E E   q  E E a Q  Q    E E E E E a Q.     q  E E a Q  E E
|-------------------|----------------|------------------|------------------|
|-------------------|----------------|------------------|------------------|
|-------------------|----------------|------------------|------------------|
|-------------------|----------------|-5-2-4-2---0h2----|------------------|
|-5-2-4-2-----------|-0----0-3h4-----|------------------|---------------2--|
|-----------0-3-3-4-|----------------|------------------|-0----0-3h4-------|


                                                       E5   N.C.
  E E E E E E E E   q  E E q  E E   E E E E E Q.       q  E E a Q  E E
|-----------------|---------------|------------------|-----------------|
|-----------------|---------------|------------------|-----------------|
|-----------------|---------------|------------------|-----------------|
|-----------------|-------------4-|-7-4-6-4---0tr2---|-----------------|
|-5-2-4-2---------|-2----2s6------|------------------|-2-------------2-|
|-----------0-3-4-|---------------|------------------|-0----0-3h4------|


                      N.C.
                      PM--------------------------------------|
                          |-3-|     |-3-|       |-3-|     |-3-|
  E E E E E a Q.      E E E E E E E E E E   E E E E E E E E E E
|------------------||---------------------|----------------------|
|------------------||---------------------|----------------------|
|------------------||---------------------|----------------------|
|-----------0h2----||---------------------|----------------------|
|-5-2h4-2----------||---------2---------2-|---------2---------2--|
|------------------||-0-0-3h4---0-0-3h4---|-0-0-3h4---0-0-3h4----|


  PM--------------------------------------------------------------|
      |-3-|     |-3-|       |-3-| |-3-| |-3-|       |-3-|     |-3-|
  E E E E E E E E E E   E E E E E E E E E E E   E E E E E E E E E E
|---------------------|-----------------------|----------------------|
|---------------------|-----------------------|----------------------|
|---------------------|-----------------------|----------------------|
|---------------------|-----------------------|---------2---------2--|
|---------2---------2-|---------2-------------|-0-0-3h4---0-0-3h4----|
|-0-0-3h4---0-0-3h4---|-0-0-3h4---0-0-0-3-3h4-|----------------------|


  PM------------------------------------------------------------|
      |-3-|     |-3-|       |-3-|     |-3-|       |-3-|     |-3-|
  E E E E E E E E E E   E E E E E E E E E E   E E E E E E E E E E
|---------------------|---------------------|---------------------|
|---------------------|---------------------|---------------------|
|---------------------|---------------------|---------------------|
|---------2---------2-|---------------------|---------------------|
|-0-0-3h4---0-0-3h4---|---------2---------2-|---------2---------2-|
|---------------------|-0-0-3h4---0-0-3h4---|-0-0-3h4---0-0-3h4---|


                        A5
                |-3-|               |-3-|
  E  E  E E E E E E E   E E E E E E E E E
|---------------------|-------------------|
|---------------------|-------------------|
|---------------------|-------------------|
|-----------4-4-6p4---|-2-2-----2-2-4p2---|
|-2-(2)s6-6---------6-|-0-0-3h4---------4-|
|---------------------|-------------------|


  N.C.                    B7
  E E E E E E E E   +E  E E E +E  e Q
|-----------------|---------------2-----||
|-----------------|---------------0-----||
|-----------------|-------2-2-(2)-------||
|-----------------|-------1-1-(1)-------||
|---------0-1-0s2-|-(2)---x-x-(x)-------||
|-0-0-3-4---------|-----2-2-2-(2)-------||


  E9
   |--3--|  |--3--|             |--3--|  |--3--|
   E  E  E  E  E  E  E  E Q     E  E  E  E  E  E  E  E Q
|-12-12-12-12-12-12-12\------|-12-12-12-12-12-12-12\------|
|--9--9--9--9--9--9--9\------|--9--9--9--9--9--9--9\------|
|-11-11-11-11-11-11-11\------|-11-11-11-11-11-11-11\------|
|-12-12-12-12-12-12-12\------|-12-12-12-12-12-12-12\------|
|----------------------------|----------------------------|
|----------------------------|----------------------------|


  N.C.
                                     PM----|
                                       |-3-|
   e e e   e E E a E E   E a E E E E E E E E
|-12-9-7\-/4-2-0-2s4-2-|-0-2s4-2-0-2---------|
|----------------------|---------------------|
|-13-9-7\-/4-2-0-2s4-2-|-0-2s4-2-0-2---------|
|----------------------|---------------------|
|----------------------|---------------------|
|----------------------|-------------0-2h3-4-|


  A5                                    E5                              N.C.
  PM----------------------------|           PM--------|     PM--------|
                                                                        |-3-|
  E E E E E E E E   E E E E E E E E   a E E E E E E E E   a E E E E E E E E E
|-----------------|-----------------|-------------------|-------------------0-|
|-----------------|---------0-------|-------------------|---------------0h2---|
|-----------------|---------x-------|-0h1---------------|-0h1-----------------|
|-2-2-4-4-5-5-4-0-|-2-2-4-5-5-2-2---|-------------------|---------------------|
|-0-0-0-0-0-0-0-0-|-0-0-0-0-0-0-0---|-------4-4-2-2-4-4-|-------4-4-2-2-------|
|-----------------|---------------0-|---0-0-0-0-0-0-0-0-|-----0-0-0-0-0-------|


                |-3-|   |-3-| |-3-| |-3-|       |-3-|  |3-|      |-3-|
  E E E E a E E E E E   E E E E E E E E E E E   E E E +E  Q  E E E E E
|-2-2-2-2-2s4-0-2p0---|-----0-----0-----0-----|-----0-(0)------0--------|
|-------------------2-|-0h2---0h2---0h2---0---|-----------3-------------|
|---------------------|---------------------2-|-0h1---------/4---2p0----|
|---------------------|-----------------------|----------------------2--|
|---------------------|-----------------------|-------------------------|
|---------------------|-----------------------|-------------------------|


                   straight Q=134
              B7      N.C.
                      PM------------------------------------------------|
  E E E E +E  Q  E    E E E E E E E E   E E E E E E E E   E E E E E E E E
|-0-----------2----||-----------------|-----------------|------------------|
|-----0-------x----||-----------------|-----------------|------------------|
|-------2-(2)-2----||-----------------|-----------------|------------------|
|-------------1----||-----------------|-----------------|------------------|
|---2--------------||-----------------|-----------------|------------------|
|------------------||-0-0-2-0-3-0-5-4-|-0-0-2-0-3-0-5-4-|-0-0-2-0-3-0-5-4--|


  PM------------------------------------------------------------------|
  E E E E E E E E   E E E E E E E E   E E E E E E E E   E E E E E E E E
|-----------------|-----------------|-----------------|------------------|
|-----------------|-----------------|-----------------|------------------|
|-----------------|-----------------|-----------------|------------------|
|-----------------|-----------------|-----------------|------------------|
|-----------------|-0-0-2-0-3-0-5-4-|-0-0-2-0-3-0-5-4-|------------------|
|-0-0-2-0-3-0-5-4-|-----------------|-----------------|-0-0-2-0-3-0-5-4--|


  PM------------------------------------------------------------------|
  E E E E E E E E   E E E E E E E E   E E E E E E E E   E E E E E E E E
|-----------------|-----------------|-----------------|------------------|
|-----------------|-----------------|-----------------|------------------|
|-----------------|-----------------|-----------------|------------------|
|-----------------|-----------------|-----------------|------------------|
|-----------------|-2-2-2-2-2-2-2-2-|-0-0-2-0-3-0-5-4-|------------------|
|-0-0-2-0-3-0-5-4-|-----------------|-----------------|-0-0-2-0-3-0-5-4--|


                    Shuffle Q=134(8=s8)
                           E5
  PM----|                  PM-------------
              |-3-|
  E E E E E E E E E    a E E E E E E E E
|-----------------0-||-2s4---------------|
|-----------0-0h2---||-------------------|
|-------------------||-------------------|
|-------------------||-------------------|
|-0-0-1-2-----------||-----2-4-4-2-2-4-0-|
|-------------------||-----0-0-0-0-0-0-0-|


     N.C.                 E5
 -|                       PM----------|
     |-3-|      |-3-|
  Q  E E E a Q  E E E   E E E E E E E E
|--------0-2s4--2p0---|-0---------------|
|----0h2------------2-|-0---------------|
|---------------------|-----------------|
|---------------------|-----------------|
|-2-------------------|---2-4-4-2-2-4-0-|
|-0-------------------|---0-0-0-0-0-0-0-|


                     A5                   N.C.                 E5
                        PM--------------|                      PM--------|
             |-3-|                        |-3-|      |-3-|
  H    +E  E E E E   q  E E E E E E   E E E E E a Q  E E E   E E E E E E Q
|------------------|----------------|---------0-2S4--2p0---|-0---------------|
|------------------|----------------|-----0h2------------2-|-0---------------|
|------------------|----------------|----------------------|-----------------|
|------------------|-2--4-5-5-2-4-0-|-2-2------------------|-----------------|
|-2----(2)---------|-0--0-0-0-0-0-0-|-0-0------------------|---2-4-4-2-2-4---|
|-0----(0)-0-3-3-4-|----------------|----------------------|---0-0-0-0-0-0---|


                 N.C.
        PM----|
  |-3-|          |-3-|           |-3-| |-3-|   |-3-| |-3-|       |-3-|
  S S S E E E Q  E E E   E E E E E E E E E E   E E E E E E a E E E E E
|--------------------0-|-2-2-2-2-2s4-0-2p0---|-----0-----0-2s4-0-2p0----||
|----------------0h2---|-------------------2-|-0h2---0h2-------------2--||
|-0h1p0----------------|---------------------|--------------------------||
|----------------------|---------------------|--------------------------||
|-------2-4-4-2--------|---------------------|--------------------------||
|-------0-0-0-0--------|---------------------|--------------------------||


  straight Q=134
  N.C.
                           ~~~~~~~~~~~~~~~~~~~~~~~~~
  E E E E E E E E   E E  E E +H       +H.      +Q
|---3-2-0---0-2-3-|-4-0-/4-4-(4)----|-(4)------(4)---*|
|---------2-------|---0-/5-5-(5)----|-(5)------(5)\--*|
|-----------------|-----------------|----------------*|
|-----------------|-----------------|----------------*|
|-----------------|-----------------|----------------*|
|-----------------|-----------------|----------------*|


Duration Legend
---------------
W - whole; H - half; Q - quarter; E - 8th; S - 16th; T - 32nd; X - 64th; a - acciaccatura
+ - note tied to previous; . - note dotted; .. - note double dotted
Uncapitalized letters represent notes that are staccato (1/2 duration)
Irregular groupings are notated above the duration line
Duration letters will always appear directly above the note/fret number it represents the
duration for.  Duration letters with no fret number below them represent rests.  Multi-
bar rests are notated in the form Wxn, where n is the number of bars to rest for.  Low
melody durations appear below the staff

Tablature Legend
----------------
 h   - hammer-on
 p   - pull-off
 b   - bend
 pb  - pre-bend
 r   - bend release (if no number after the r, then release immediately)
 /\  - slide into or out of (from/to "nowhere")
 s   - legato slide
 S   - shift slide
  - natural harmonic
[n]  - artificial harmonic
n(n) - tapped harmonic
 ~   - vibrato
 tr  - trill
 T   - tap
 TP  - trem. picking
 PM  - palm muting
\n/  - tremolo bar dip; n = amount to dip
 \n  - tremolo bar down
 n/  - tremolo bar up
/n\  - tremolo bar inverted dip
 =   - hold bend; also acts as connecting device for hammers/pulls
 <>  - volume swell (louder/softer)
 x   - on rhythm slash represents muted slash
 o   - on rhythm slash represents single note slash

Misc Legend
-----------
 |  - bar
||  - double bar
||o - repeat start
o|| - repeat end
*|  - double bar (ending)
 :  - bar (freetime)
 $  - Segno
 &  - Coda
Tempo markers -  = BPM(8/16=s8/s16), where s8 = swing 8ths, s16 = swing 16ths
Suggest correction
Give kudos to tab author, rate the tab!
1 2 3 4 5
comments
print report bad tab
guest
You may want to rate the tab now too:
select rating
Wanna post a correction for this tab? Suggest correction