Oops, an error
Loading. Please wait.

Stumble tab

31,469 views 18 this week
2 commentsread comments
1 2 3 4 5
x 5
add to favorites
×
Save as Personal and add changes to this tab that will be seen only by you. Learn more ›
×
You can save this tab as Personal to edit and correct it or add notes. All changes will be seen only by you. Learn more »
launch autoscroll
font size
0
reset
how to read this tab
guitar tuner
edit
Autoscroll
slow
fast
+/-
esc
set tempo
stop
Author
Difficulty
Unregistered
intermediate
The Stumble
Freddie King
As played by Peter Green in Fleetwood Mack

e|--------------------------|-----------------------|
B|--------------------------|-----------------------|
G|-------------------9h-11--|--9~---------11b-------|
D|------------9h-11---------|---------11------------|
A|--------------------------|-----------------------|
E|--------------------------|-----------------------|

e|------------------------------|------------------------|
B|-------8--10b---10b-10r-8-----|--8b--------------------|
G|----9----------------------9--|-------9----7-----------|
D|------------------------------|-----------------9\7-5h-|
A|------------------------------|------------------------|
E|------------------------------|------------------------|

e|---------------------------|---------12\-------12\-|
B|---------------------------|---------12\-------12\-|
G|--------------------9h-11--|--9~-----12\-------12\-|
D|--6~---------9h-11---------|-----------------------|
A|---------------------------|-----------------------|
E|---------------------------|-----------------------|

e|------------------------------|------------------------|----------------0----|
B|------------------------------|------------------------|----------------0----|
G|-------7--9b---9--9b-9p-7-----|--7b--------------------|-------7~------------|
D|----9----------------------9--|-------9----7--5--7--5/-|--9------------------|
A|------------------------------|------------------------|---------------------|
E|------------------------------|------------------------|---------------------|

e|------------------------|-------------------------------|
B|--5~---5--3--5~---3-----|-----5--7----7b---7--5~--------|
G|----------------------4/|--6-----------------------6----|
D|------------------------|-------------------------------|
A|------------------------|-------------------------------|
E|------------------------|-------------------------------|

e|-----------7--6--5--------------------|---------------------------|
B|--------5-----------8--7p-5-----5--7--|--7r-5-----5-----7b--------|
G|--4h-6-----------------------6--------|--------6-----6-------6~---|
D|--------------------------------------|---------------------------|
A|--------------------------------------|---------------------------|
E|--------------------------------------|---------------------------|

e|----12--9--7--4--2--0--12--|--9--7--4--2--0--2-----------|
B|---------------------------|--------------------------0--|
G|----12--9--7--4--2--0--12--|--9--7--4--2--0--2--0h-1-----|
D|---------------------------|-----------------------------|
A|---------------------------|-----------------------------|
E|---------------------------|-----------------------------|

e|--0-----------------------------|--0--------------------------|
B|-----0--3--------3--------------|-------3--0------------------|
G|-----------2/-4-----4\-2p-0-----|----------------------9h-11--|
D|-----------------------------2--|---------------9h-11---------|
A|--------------------------------|-----------------------------|
E|--------------------------------|-----------------------------|

e|-------------------------|------------------------------|
B|-------------------------|-------8--10b---10b-10r-8-----|
G|--9~---------11--11b-----|----9----------------------9--|
D|---------11--------------|------------------------------|
A|-------------------------|------------------------------|
E|-------------------------|------------------------------|

e|------------------------|---------------------------|---------12\-------12\-|
B|--8b--------------------|---------------------------|---------12\-------12\-|
G|-------9----7-----------|--------------------9h-11--|--9~-----12\-------12\-|
D|-----------------9\7-5h-|--6~---------9h-11---------|-----------------------|
A|------------------------|---------------------------|-----------------------|
E|------------------------|---------------------------|-----------------------|

e|---------------------------|------------------------|
B|---------------------------|------------------------|
G|-------7--9b---9b-9r-7-----|--7~--------------------|
D|----9-------------------9--|-------9----7--5--7--5/-|
A|---------------------------|------------------------|
E|---------------------------|------------------------|

e|------------------------12--|------------------------------------------|
B|--------------------12------|--15--12----------------------------------|
G|-------7~-------14b---------|----------14--14b-14r-12------14------12b-|
D|--9-------------------------|--------------------------14------14------|
A|----------------------------|------------------------------------------|
E|----------------------------|------------------------------------------|

e|--------------------------------------|----------------------------------|
B|--------------------------------------|----------------------------------|
G|--------12b---------------------------|----------------------------------|
D|--14~-------14------------------------|----------------------------------|
A|----------------14--12h-14--10b-------|--12p-10--12p-10--12p-10------10--|
E|----------------------------------12--|--------------------------12------|

e|------------------------------------------------|----12--9--7--4--2--0--12--|
B|------------------------------------------------|---------------------------|
G|------------------------------------------------|----12--9--7--4--2--0--12--|
D|------12----------11----------10----------------|---------------------------|
A|--14------14--13------13--12------12--10h-11----|---------------------------|
E|------------------------------------------------|---------------------------|

e|--9--7--4--2--0--------------|--0----------------------------|
B|--------------------------0--|-------3--0-----3--------------|
G|--9--7--4--2--0--2--0h-1-----|-------------4-----4\-2p-0-----|
D|-----------------------------|----------------------------2--|
A|-----------------------------|-------------------------------|
E|-----------------------------|-------------------------------|

e|--0--------------------------|--------------------10--|
B|-----0--3--0-------8h-10p-8--|--10b---10b---------10b-|
G|----------------9------------|------------------------|
D|-----------------------------|------------------------|
A|-----------------------------|------------------------|
E|-----------------------------|------------------------|

e|----10----10-----------------------|--------------------------------|
B|----10b---10b---10p---8-----10--8b-|-------8h-10p-8-----------------|
G|-------------------------9---------|--9~-------------9--------------|
D|-----------------------------------|--------------------7--5h-7p-5--|
A|-----------------------------------|--------------------------------|
E|-----------------------------------|--------------------------------|

e|---------------------|--------------------------|
B|---------------------|--------------------12b---|
G|---------------------|--9--9----9----9----------|
D|-------5b---------9--|--------------------------|
A|--7------------------|--------------------------|
E|---------------------|--------------------------|

e|-----------------------------------|-------------------------|
B|-----------------------------------|--------12---------------|
G|----------9--11--11r-9------9------|--11b---------9~---7-----|
D|------11----------------11-----11--|----------------------9--|
A|-----------------------------------|-------------------------|
E|-----------------------------------|-------------------------|

e|-------------------------12--|
B|---------------------12------|
G|--7~-------------14b---------|
D|-------7--5------------------|
A|-----------------------------|
E|-----------------------------|

e|------12------------------------------12----------|
B|--15b-----15p-12--15p-12--15p-12--15b-----15p-12--|
G|--------------------------------------------------|
D|--------------------------------------------------|
A|--------------------------------------------------|
E|--------------------------------------------------|

e|------12------------------------------------------|
B|--15b-----15p-12------------------12--------------|
G|------------------14b-14--12--14------12------12--|
D|------------------------------------------14------|
A|--------------------------------------------------|
E|--------------------------------------------------|

e|--------------------------------------------------|
B|--------------------------------------------------|
G|--14p-12------14------12--------------12------12--|
D|----------14------14------14p-12h-14------14------|
A|--------------------------------------------------|
E|--------------------------------------------------|

e|--------------------------------------------------|
B|--------------------------------------------------|
G|--------------------------------------------------|
D|--14p-12h-14p-12----------------------------------|
A|------------------14--13--12--10--12--12r-10------|
E|----------------------------------------------12--|

e|----------------------------------------------|
B|----------------------------------------------|
G|----------------------------------------------|
D|------12----------11----------10--------------|
A|--14------14\-13------13--12------12--10b-----|
E|------------------------------------------12--|

e|--------14b---12--------------------|------------------17b-17p-15------|
B|----12------------12------12--------|------------------------------17--|
G|----------------------14------12b---|----------------------------------|
D|------------------------------------|--14------------------------------|
A|------------------------------------|------14--------------------------|
E|------------------------------------|----------------------------------|

e|--------15b-----------17b-|--17p-15----------17b-17p-15----------15--|
B|--17~---------------------|----------17--17--------------17--17------|
G|--------------------------|------------------------------------------|
D|--------------------------|------------------------------------------|
A|--------------------------|------------------------------------------|
E|--------------------------|------------------------------------------|

e|--------15\-------------------|----------------------12----------|
B|--17~-------------------------|------------------12------15--12--|
G|------------------14r-12------|--------12b---14b-----------------|
D|--------------------------14--|--14~-----------------------------|
A|------------------------------|----------------------------------|
E|------------------------------|----------------------------------|

e|--------12----------12----|------15b---15b---15p-12------------------|
B|--15b-------15b-----------|--------------------------12------12------|
G|--------------------------|------------------------------14------12--|
D|--------------------------|------------------------------------------|
A|--------------------------|------------------------------------------|
E|--------------------------|------------------------------------------|

e|------------------------------------|--------------------12----|
B|------------------------------------|----------------12--------|
G|------------------------------------|--------------------------|
D|--14--------12------14--12----------|--------12~---------------|
A|------14--------14----------12p-10--|--14----------------------|
E|------------------------------------|--------------------------|

e|--12----12----12----12------------------|----------------------------|
B|--15b---15b---15b---15b-15p-12------12--|----------------------------|
G|--------------------------------14------|--12b-----------------12----|
D|----------------------------------------|--------14--12--14~---------|
A|----------------------------------------|----------------------------|
E|----------------------------------------|----------------------------|

e|------12--14--14b-14--12--------------------|
B|--14----------------------12----------------|
G|------------------------------14--12--------|
D|--------------------------------------12b---|
A|--------------------------------------------|
E|--------------------------------------------|

e|------------------------------------|--------14b---12--------------------|
B|------------------------------------|----12------------12------12--------|
G|--------------12b---12b-------------|----------------------14------12b---|
D|--14--11--14------------14~---11----|------------------------------------|
A|------------------------------------|------------------------------------|
E|------------------------------------|------------------------------------|

e|--------------------------------------|
B|--------------------------------------|
G|--------------------------------------|
D|--14--12------------------------------|
A|----------12--10--12--10h-11----------|
E|------------------------------12--10--|

e|----------------------------------------------|-------------------17b---17b---|
B|----------------------------------------------|------------0------------------|
G|----------------------------------------------|-------------------------------|
D|--------------12----------11----------10------|-------------------------------|
A|------12/-14------14--13------13--12------12--|--10b--------------------------|
E|--12------------------------------------------|--------12---------------------|

e|--17b-------------17b-|----17b---15--17------15b-15----------|
B|----------------------|------------------------------17--17--|
G|----------------------|--------------------------------------|
D|----------------------|--------------------------------------|
A|----------------------|--------------------------------------|
E|----------------------|--------------------------------------|

e|--------15--15b---------|----19--19b---------------------|
B|--17--------------------|------------17------17--19--17--|
G|------------------------|----------------18--------------|
D|------------------------|--------------------------------|
A|------------------------|--------------------------------|
E|------------------------|--------------------------------|

e|--------------------------|------------------------------------------|
B|--19b---------17~-----19b-|----------17--15--------------------------|
G|--------18----------------|----18------------16\-14--12--14p-12------|
D|--------------------------|--------------------------------------14--|
A|--------------------------|------------------------------------------|
E|--------------------------|------------------------------------------|

e|------------------------------------|--------------------12--12--|
B|------------------------------------|--------------------15b-15b-|
G|--12b-------------------------------|----------------------------|
D|------14--------------12~-----------|--------12------------------|
A|----------14--12--14--------12--10--|--14--------14--------------|
E|------------------------------------|----------------------------|

e|--12--12----12--12------------------------|
B|--15b-15b---15b-15b---15p-12------12------|
G|------------------------------14------12b-|
D|------------------------------------------|
A|------------------------------------------|
E|------------------------------------------|

e|--------------------------------12--14--|--14b-----12----15b---15b---15b---|
B|--------------12--12--------14----------|------14--------------------------|
G|--------------12--12--------------------|----------------------------------|
D|--14p-12--14----------14----------------|----------------------------------|
A|----------------------------------------|----------------------------------|
E|----------------------------------------|----------------------------------|

e|--15p-12------------------------------|--------17b-17p-16------17------15--|
B|----------12------12------------------|--------------------17------17------|
G|--------------14------12--------------|------------------------------------|
D|--------------------------14~---11----|------------------------------------|
A|--------------------------------------|------------------------------------|
E|--------------------------------------|------------------------------------|

e|------------------------------------------|----------14b---12------------------|
B|--17--------------------------------------|--------------------12------12------|
G|------14b-14p-12------14------12b---------|------------------------14------12b-|
D|------------------14------14------14p-12--|--14--------------------------------|
A|------------------------------------------|------------------------------------|
E|------------------------------------------|------------------------------------|

e|------------------------------|-----------------------|
B|--------12--------------------|-----------------------|
G|--------12-------------9h-11--|--9~---------11b-------|
D|--14~-----------9h-11---------|---------11------------|
A|------------------------------|-----------------------|
E|------------------------------|-----------------------|

e|--------------------------------|-----------------------|
B|-------8--10b---10b---10p-8-----|--8b-------------------|
G|----9------------------------9--|-------9----7----------|
D|--------------------------------|-----------------7--5--|
A|--------------------------------|-----------------------|
E|--------------------------------|-----------------------|

e|-----------------------------|---------12\-------12\-|
B|-----------------------------|---------12\-------12\-|
G|----------------------9h-11--|--9~-----12\-------12\-|
D|--6------------9h-11---------|-----------------------|
A|-----7-----------------------|-----------------------|
E|--------7~-------------------|-----------------------|

e|-----------------------------|------------------------|--------------------|
B|-----------------------------|------------------------|--------------------|
G|-------7--9b---9b---9p-7-----|--7b--------------------|-------7b-----------|
D|----9---------------------9--|-------9----7--5--7--5--|--9-----------------|
A|-----------------------------|------------------------|--------------------|
E|-----------------------------|------------------------|--------------------|

e|------------------------------------|--------------------------------------|
B|--14b-14--12------12----------------|--------------------------------------|
G|--------------14------12b-----------|--------12b---------------------------|
D|----------------------------14--12--|--14--------14------------------------|
A|------------------------------------|----------------14--12--14--10b-------|
E|------------------------------------|----------------------------------12--|

e|--------------------------------|------------------------------------|
B|--------------------------------|------------------------------------|
G|--------------------------------|------------------------------------|
D|--------------------------------|------14----------------------------|
A|--12----10b-----10b-----10------|--14--------12--10--12--10b---------|
E|------------12------12------12--|------------------------------12----|

e|----12--9--7--4--2--0--12--|--9--7--4--2--0--2--------0--|
B|---------------------------|-----------------------------|
G|----12--9--7--4--2--0--12--|--9--7--4--2--0--2--0h-1-----|
D|---------------------------|-----------------------------|
A|---------------------------|-----------------------------|
E|---------------------------|-----------------------------|

e|----12--------------------------------------|--------8--7----------|
B|--------15--12------------------15----------|--------8--7----------|
G|----------------15--14--12--14------14b-14--|--12\---8--7----------|
D|--------------------------------------------|--------7--6----------|
A|--------------------------------------------|--------8--7----------|
E|--------------------------------------------|----------------------|

e|------------------|
B|------------------|
G|------------------|
D|------------------|
A|------------------|
E|------------------|
Suggest correction
Creating personal tab
Creating personal tab
You can edit any tab online and save it as your Personal.

You can edit, replace or remove any tab part or add personal notes – all changes will be seen only by you.

Personal tabs can be accessed anytime from any device, even offline.
Learn more »
comments
print report bad tab
2 comments total.
0 reply
monkeyinthesand 10 May 16, 2007 07:24 AM

some bits are right but some aren't

0 reply
captaincrunk 36 May 15, 2009 10:34 PM

how bout you post things under who played them?

guest
Wanna post a correction for this tab? Suggest correction