Oops, an error
Loading. Please wait.

In A Daydream Acoustic Tab

version 1
version 1

Whole song

6,039 views 15 this week
2 commentsread comments
1 2 3 4 5
excellent!
x 3
add to favorites
launch autoscroll
font size
0
reset
how to read this tab
guitar tuner
Autoscroll
slow
fast
+/-
esc
set tempo
stop
Help us to improve Ultimate-Guitar.com Take our survey!
×
Author
Difficulty
novice
In a Daydream
Freddy Jones Band
(Acoustic Version)

Intro:

(Guitar 1)   
Strum G once           Strum D/open E once
G (or Dsus4)     D     D(open E)             x4
 
(Guitar 2 )
   Strum    Slide up/down
|---17-----7--^--9---^--7---|
|---15-----8--^--10--^--8---| 
|---16-----9--^--11--^--9---|    x4
|---------------------------|
|---------------------------|
|---------------------------|

D	            G	  		 D
Tuesday morning          never looked so good

(Guitar 2 )  
|----------12------9-----7----^-----9-----^-----7----|
|----------10-----10-----8----^-----10----^-----8----|
|----------11-----11-----9----^-----11----^-----10---|        x  2
|----------------------------------------------------|
|----------------------------------------------------|
|----------------------------------------------------|

    G     F#m   Em                  D
I’m all…..ready in             in a daydream

(Guitar 2 ) 
|----------12------9-----7----^-----9-----^-----7----|
|----------10-----10-----8----^-----10----^-----8----|
|----------11-----11-----9----^-----11----^-----10---|        x  2
|----------------------------------------------------|
|----------------------------------------------------|
|----------------------------------------------------|

D
       And the sun is shining
G	 	            D
       It’s here to wake me up

(Guitar 2 ) 
|----------12------9-----7----^-----9-----^-----7----|
|----------10-----10-----8----^-----10----^-----8----|
|----------11-----11-----9----^-----11----^-----10---|        x  2
|----------------------------------------------------|
|----------------------------------------------------|
|----------------------------------------------------|

G        F#m     Em		                 D
      No one around              just me and the sky
(Guitar 2 ) 
|----------12------9-----7----^-----9-----^-----7----|
|----------10-----10-----8----^-----10----^-----8----|
|----------11-----11-----9----^-----11----^-----10---|        x  2
|----------------------------------------------------|
|----------------------------------------------------|
|----------------------------------------------------|

G         F#m     Em            D
      I’m already in       in a daydream

(Guitar 2 ) 
|----------12------9-----7----^-----9-----^-----7----|
|----------10-----10-----8----^-----10----^-----8----|
|----------11-----11-----9----^-----11----^-----10-=-|        x  2
|----------------------------------------------------|
|----------------------------------------------------|
|----------------------------------------------------|

G    F#m    Em               D
I’m already in          in a daydream


(Guitar 2 ) 
|----------12------9-----7----^-----9-----^-----7----|
|----------10-----10-----8----^-----10----^-----8----|
|----------11-----11-----9----^-----11----^-----10---|       x1
|----------------------------------------------------|
|----------------------------------------------------|
|----------------------------------------------------|

|------12-----14-----15----14----|
|------10-----15-----15----15----|
|------11-----14-----14----14----|       x1
|--------------------------------|
|--------------------------------|
|--------------------------------|

Instrumental

D 
And the sky is calling
G                      D
        Calling out my name

(Guitar 2 ) 
|----------12------9-----7----^-----9-----^-----7----|
|----------10-----10-----8----^-----10----^-----8----|
|----------11-----11-----9----^-----11----^-----10---|        x  2
|----------------------------------------------------|
|----------------------------------------------------|
|----------------------------------------------------|

G           F#m	       Em		      D
    Telling me just to stay      say don’t go away

Don’t go away





(Guitar 2 ) 
|----------12------9-----7----^-----9-----^-----7----|
|----------10-----10-----8----^-----10----^-----8----|
|----------11-----11-----9----^-----11----^-----10---|        x  1
|----------------------------------------------------|
|----------------------------------------------------|
|----------------------------------------------------|

|------12-----14-----15----14----|
|------10-----15-----15----15----|
|------11-----14-----14----14----|       x1
|--------------------------------|
|--------------------------------|
|--------------------------------|

G   F#m	    Em		          D
I’m already in            in a daydream

(Guitar 2 ) 
|----------12------9-----7----^-----9-----^-----7----|
|----------10-----10-----8----^-----10----^-----8----|
|----------11-----11-----9----^-----11----^-----10=--|        x  2
|----------------------------------------------------|
|----------------------------------------------------|
|----------------------------------------------------|
 
G    F#m    Em		          D
I’m already in            in a daydream

(Guitar 2 ) 
|----12------9-----7----^-----9-----^-----7----|
|----10-----10-----8----^-----10----^-----8----|
|----11-----11-----9----^-----11----^-----10---| x 4 while finishing lyrics
|----------------------------------------------|
|----------------------------------------------|
|----------------------------------------------|
 
In a daydream
                                      
In a daydream  (End with D)



go Freddy....

Guitar #2 plays between lyrics

the lead will come soon!

I had to listen many times to get the chords right...but, if you hear it diffently let me know!

bdemers@maine.rr.com
Suggest correction
Give kudos to tab author, rate the tab!
1 2 3 4 5
comments
print report bad tab
2 comments total.
0 reply
blur819 1,337 wrote on January 30 2010, 11:43 am

Thank you... perfect*****

0 reply
guitarmannnn 133 wrote on March 1 2015, 12:36 am

Thank u very much@!

guest
You may want to rate the tab now too:
select rating
Wanna post a correction for this tab? Suggest correction