Oops, an error
Loading. Please wait.

What Shall We Do With The Drunken Sailor tab

712 views 27 this week
no commentswrite comment
1 2 3 4 5
2 more votes to show rating
add to favorites
×
Save as Personal and add changes to this tab that will be seen only by you. Learn more ›
×
You can save this tab as Personal to edit and correct it or add notes. All changes will be seen only by you. Learn more »
launch autoscroll
font size
0
reset
how to read this tab
guitar tuner
edit
Autoscroll
slow
fast
+/-
esc
set tempo
stop
What Shall We Do With The Drunken Sailor 4/8
--  Freddy Quinn – 1961  -- 

Dm  Dm   C   C   |Am C| Dm


1.)
    Dm                         Dm
     What shall we do with a    drun - ken  sail - or,
E||-----1-----------1--------|-----1-----------1--------|
B||-----------3-----------3--|-----------3-----------3--|
G||--------2-----------2-----|--------2-----------2-----|
D||--0-----------0-----------|--0-----------0-----------|
A||--------------------------|--------------------------|
E||--------------------------|--------------------------|

    C                          C
    What shall we do with a    drun - ken  sail - or,
  |-----0-----------0-----1--|-----0-----------0-----1--|
  |-----------1--------------|-----------1--------------|
  |--------0-----------0-----|--------0-----------0-----|
  |--------------2-----------|--------------2-----------|
  |--3-----------------------|--3-----------------------|
  |--------------------------|--------------------------|

    Dm                         Dm
    What shall we do with a    drun - ken  sail - or,
  |-----1-----------1--------|-----1-----------1--------|
  |-----------3-----------3--|-----------3-----------3--|
  |--------2-----------2-----|--------2-----------2-----|
  |--0-----------0-----------|--0-----------0-----------|
  |--------------------------|--------------------------|
  |--------------------------|--------------------------|


   Am            C             Dm
      Earl-y    in    the      morn  -  -  ing.
  |-----0-----------0--------|-----1-----------1--------||
  |-----------3-----------1--|-----------3-----------3--||
  |--------2-----------0-----|--------2-----------2-----||
  |--------------------------|--0-----------0-----------||
  |---0----------3-----------|--------------------------||
  |--------------------------|--------------------------||



Refrain:

    Dm                         Dm
    Hoo  -   -  ray,     and   up   she   ris  - es,
  |-----1-----------1--------|-----1-----------1--------|
  |-----------3-----------3--|-----------3-----------3--|
  |--------2-----------2-----|--------2-----------2-----|
  |--0-----------0-----------|--0-----------0-----------|
  |--------------------------|--------------------------|
  |--------------------------|--------------------------|

    C                          C
    Hoo  -   -  ray,     and   up   she   ris  - es,
  |-----0-----------0-----1--|-----0-----------0-----1--|
  |-----------1--------------|-----------1--------------|
  |--------0-----------0-----|--------0-----------0-----|
  |--------------2-----------|--------------2-----------|
  |--3-----------------------|--3-----------------------|
  |--------------------------|--------------------------|

    Dm                         Dm
    Hoo  -   -  ray,     and   up   she   ris  - es,
  |-----1-----------1--------|-----1-----------1--------|
  |-----------3-----------3--|-----------3-----------3--|
  |--------2-----------2-----|--------2-----------2-----|
  |--0-----------0-----------|--0-----------0-----------|
  |--------------------------|--------------------------|
  |--------------------------|--------------------------|


    Am           C             Dm
      Earl-y    in    the      morn  -  -  ing.
  |-----0-----------0--------|-----1-----------1--------||
  |-----------3-----------1--|-----------3-----------3--||
  |--------2-----------0-----|--------2-----------2-----||
  |--------------------------|--0-----------0-----------||
  |---0----------3-----------|--------------------------||
  |--------------------------|--------------------------||


   Dm  Dm   C   C   |Am C| Dm


2.)
   Dm                         Dm
    Put him in the long-boat   till   he's so - - ber,
  |-----1-----------1--------|-----1-----------1--------|
  |-----------3-----------3--|-----------3-----------3--|
  |--------2-----------2-----|--------2-----------2-----|
  |--0-----------0-----------|--0-----------0-----------|
  |--------------------------|--------------------------|
  |--------------------------|--------------------------|

    C                          C
    Put him in the long-boat   till   he's so - - ber,
  |-----0-----------0-----1--|-----0-----------0-----1--|
  |-----------1--------------|-----------1--------------|
  |--------0-----------0-----|--------0-----------0-----|
  |--------------2-----------|--------------2-----------|
  |--3-----------------------|--3-----------------------|
  |--------------------------|--------------------------|

    Dm                         Dm
    Put him in the long-boat   till   he's so - - ber,
  |-----1-----------1--------|-----1-----------1--------|
  |-----------3-----------3--|-----------3-----------3--|
  |--------2-----------2-----|--------2-----------2-----|
  |--0-----------0-----------|--0-----------0-----------|
  |--------------------------|--------------------------|
  |--------------------------|--------------------------|


    Am           C             Dm
      Earl-y    in    the      morn  -  -  ing.
  |-----0-----------0--------|-----1-----------1--------||
  |-----------3-----------1--|-----------3-----------3--||
  |--------2-----------0-----|--------2-----------2-----||
  |--------------------------|--0-----------0-----------||
  |---0----------3-----------|--------------------------||
  |--------------------------|--------------------------||



Refain:
  Dm                         Dm
    Hoo  -   -  ray,     and   up   she   ris  - es,
  |-----1-----------1--------|-----1-----------1--------|
  |-----------3-----------3--|-----------3-----------3--|
  |--------2-----------2-----|--------2-----------2-----|
  |--0-----------0-----------|--0-----------0-----------|
  |--------------------------|--------------------------|
  |--------------------------|--------------------------|

    C                          C
    Hoo  -   -  ray,     and   up   she   ris  - es,
  |-----0-----------0-----1--|-----0-----------0-----1--|
  |-----------1--------------|-----------1--------------|
  |--------0-----------0-----|--------0-----------0-----|
  |--------------2-----------|--------------2-----------|
  |--3-----------------------|--3-----------------------|
  |--------------------------|--------------------------|

    Dm                         Dm
    Hoo  -   -  ray,     and   up   she   ris  - es,
  |-----1-----------1--------|-----1-----------1--------|
  |-----------3-----------3--|-----------3-----------3--|
  |--------2-----------2-----|--------2-----------2-----|
  |--0-----------0-----------|--0-----------0-----------|
  |--------------------------|--------------------------|
  |--------------------------|--------------------------|


    Am           C             Dm
      Earl-y    in    the      morn  -  -  ing.
  |-----0-----------0--------|-----1-----------1--------||
  |-----------3-----------1--|-----------3-----------3--||
  |--------2-----------0-----|--------2-----------2-----||
  |--------------------------|--0-----------0-----------||
  |---0----------3-----------|--------------------------||
  |--------------------------|--------------------------||


   Dm  Dm   C   C   |Am C| Dm

3.)
   Dm                         Dm
    Pull  out   the  plug and  wet   all   over
  |-----1-----------1--------|-----1-----------1--------|
  |-----------3-----------3--|-----------3-----------3--|
  |--------2-----------2-----|--------2-----------2-----|
  |--0-----------0-----------|--0-----------0-----------|
  |--------------------------|--------------------------|
  |--------------------------|--------------------------|

    C                          C
    Pull  out   the  plug and  wet   all   over
  |-----0-----------0-----1--|-----0-----------0-----1--|
  |-----------1--------------|-----------1--------------|
  |--------0-----------0-----|--------0-----------0-----|
  |--------------2-----------|--------------2-----------|
  |--3-----------------------|--3-----------------------|
  |--------------------------|--------------------------|

    Dm                         Dm
    Pull  out   the  plug and  wet   all   over
  |-----1-----------1--------|-----1-----------1--------|
  |-----------3-----------3--|-----------3-----------3--|
  |--------2-----------2-----|--------2-----------2-----|
  |--0-----------0-----------|--0-----------0-----------|
  |--------------------------|--------------------------|
  |--------------------------|--------------------------|


    Am           C             Dm
      Earl-y    in    the      morn  -  -  ing.
  |-----0-----------0--------|-----1-----------1--------||
  |-----------3-----------1--|-----------3-----------3--||
  |--------2-----------0-----|--------2-----------2-----||
  |--------------------------|--0-----------0-----------||
  |---0----------3-----------|--------------------------||
  |--------------------------|--------------------------||


Refain:
  Dm                         Dm
    Hoo  -   -  ray,     and   up   she   ris  - es,
  |-----1-----------1--------|-----1-----------1--------|
  |-----------3-----------3--|-----------3-----------3--|
  |--------2-----------2-----|--------2-----------2-----|
  |--0-----------0-----------|--0-----------0-----------|
  |--------------------------|--------------------------|
  |--------------------------|--------------------------|

    C                          C
    Hoo  -   -  ray,     and   up   she   ris  - es,
  |-----0-----------0-----1--|-----0-----------0-----1--|
  |-----------1--------------|-----------1--------------|
  |--------0-----------0-----|--------0-----------0-----|
  |--------------2-----------|--------------2-----------|
  |--3-----------------------|--3-----------------------|
  |--------------------------|--------------------------|

    Dm                         Dm
    Hoo  -   -  ray,     and   up   she   ris  - es,
  |-----1-----------1--------|-----1-----------1--------|
  |-----------3-----------3--|-----------3-----------3--|
  |--------2-----------2-----|--------2-----------2-----|
  |--0-----------0-----------|--0-----------0-----------|
  |--------------------------|--------------------------|
  |--------------------------|--------------------------|



    Dm                         Dm
    What shall we do? - - - - - - - - - - - - - - -  -
E||-----1-----------1--------|-----1-----------1--------|
B||-----------3-----------3--|-----------3-----------3--|
G||--------2-----------2-----|--------2-----------2-----|
D||--0-----------0-----------|--0-----------0-----------|
A||--------------------------|--------------------------|
E||--------------------------|--------------------------|

    C                          C
    What shall we do? - - - - - - - - - - - - - - - - -
  |-----0-----------0-----1--|-----0-----------0-----1--|
  |-----------1--------------|-----------1--------------|
  |--------0-----------0-----|--------0-----------0-----|
  |--------------2-----------|--------------2-----------|
  |--3-----------------------|--3-----------------------|
  |--------------------------|--------------------------|

    Dm                         Dm
    What shall we do? - - - - - - - - - - - - - - - - - 
  |-----1-----------1--------|-----1-----------1--------|
  |-----------3-----------3--|-----------3-----------3--|
  |--------2-----------2-----|--------2-----------2-----|
  |--0-----------0-----------|--0-----------0-----------|
  |--------------------------|--------------------------|
  |--------------------------|--------------------------|


   Am            C             Dm
      Earl-y    in    the      morn  -  -  ing.
  |-----0-----------0--------|-----1-----------1--------||
  |-----------3-----------1--|-----------3-----------3--||
  |--------2-----------0-----|--------2-----------2-----||
  |--------------------------|--0-----------0-----------||
  |---0----------3-----------|--------------------------||
  |--------------------------|--------------------------||


    Dm  Dm   C   C   |Am C| Dm

            
            
Suggest correction
Creating personal tab
Creating personal tab
You can edit any tab online and save it as your Personal.

You can edit, replace or remove any tab part or add personal notes – all changes will be seen only by you.

Personal tabs can be accessed anytime from any device, even offline.
Learn more »
Give kudos to tab author, rate the tab!
1 2 3 4 5
comments
print report bad tab
guest
You may want to rate the tab now too:
select rating
Wanna post a correction for this tab? Suggest correction